Oops, an error
Loading. Please wait.

Broken Sonnet Tab

version 7
version 7
by Hale
1,122 views 1 this week
no commentswrite comment
1 2 3 4 5
please rate
add to favorites
launch autoscroll
font size
0
reset
how to read this tab
guitar tuner
Tab Pro tools
  • play this tab
  • loop segment
  • change instrument
  • show fretboard
  • metronome
×
Best way to learn
"Broken Sonnet"
Autoscroll
slow
fast
+/-
esc
set tempo
stop
Contributor
not really sure on the solo part -___-

Intro/Verse
      Em                 G                     D              Cadd9
E|---------------------------------------------------------------------|
B|---------------------------------------------------------------------|
G|-----0------0----------0-------0------------0------0-------0------0--|
D|----0---0--0-----0----0----0--0-----0------0---0--0-------0---0--0---|   5x
A|---7---7-7------9---10---10-10----10------5---5-5------2-3---3-3-----|
E|---------------------------------------------------------------------|



Pre-Chorus
"I don't care what they say..."
     Asus2        G               Cadd9
E|--------------------------------------------------|
B|--------------------------------------------------|
G|-----0-----0-----0-----0-----0-----0-----0-----0--|
D|----0-----0-----0-----0-----0-----0-----0-----0---|
A|--0-----0-----2-----2-----3-----3-----3-----3-----|
E|--------------------------------------------------|

"I don't care what they do"                           "Cause tonight..."
      Em            G                 Cadd9               then play D2
E|--------------------------------------------------|
B|--------------------------------------------------|
G|-----0--7--0-----0-----0-----0-----0-----0-----0--|
D|----0-----------0-----0-----0-----0-----0-----0---|
A|--7-----------5-----5-----3-----3-----3-----3-----|
E|--------------------------------------------------|




Chorus
"I leave my fears behind,
                    Cause tonight..."
   Em   D  Cadd9     D2
E|--3---2---------------|
B|--3---3---3--------3--|
G|--0---2---0--------2--|  2x
D|--2-------2--------0--|
A|--2-------3--------0--|
E|-------------------2--|



Repeat(Verse)

(Pre-Chorus)

(Chorus)


Bridge 
"Lie down, right next to me..."
    G    D    Em   Cadd9
E|--3----2----3------------|
B|--3----3----3-----3------|
G|--0----2----0-----0------|
D|--0---------2-----2------|
A|--2---------2-----3------|
E|--3----------------------|

"And I will never let go.."
    Em   D   Cadd9
E|--3----2---------|
B|--3----3----3----|
G|--0----2----0----|
D|--2---------2----|
A|--2---------3----|
E|-----------------|


Instrumental/Solo
Em - D - Cadd9 - (D2)
E|-----------------------------------12---15------------15--15-17-17-17-15--|
B|--------------------------12-13-15--------15--15-13-12--------------------|
G|--12--12-----------11-12-14-----------------------------------------------|
D|----12--10---12-14--------------------------------------------------------|
A|--------------------------------------------------------------------------|
E|--------------------------------------------------------------------------|


(Chorus)
(Bridge)

Outro
"And still I see the tears from your eyes..."
E|------------------------------------------------------------|
B|------------------------------------------------------------|
G|-----0------0-------0-------0------0------0-------0------0--|
D|----0---0--0-------0----0--0------0---0--0-------0---0--0---|
A|---7---7-7-------10---10-10------5---5-5------2-3---3-3-----|
E|------------------------------------------------------------|

E|---------------------------------|
B|---------------------------------|
G|-----0------0-------0------0-----|
D|----0---0--0----0--0---0--0---0--|
A|---0---0--2----2-3----3-5----5---|
E|---------------------------------|

E|----------------------|
B|----------------------|
G|-----0-------0--------|
D|----0---0---0---0-----|
A|----------------------|
E|---0---0---2---2--3---|
comments
We did not receive enough feedback on this tab! Please rate:
print report bad tab
1 2 3 4 5
I want to post or [tab]
guest
You may want to rate the tab now too:
select rating
Please do not post tabs as comments. Select "correction" instead!