Oops, an error
Loading. Please wait.

Dahil Sayo Sa Himig Ng Aking Gitara chords

by Hale
6,444 views 24 this week
3 commentsread comments
1 2 3 4 5
x 3
add to favorites
×
Save as Personal and add changes to this tab that will be seen only by you. Learn more ›
×
You can save this tab as Personal to edit and correct it or add notes. All changes will be seen only by you. Learn more »
launch autoscroll
font size
0
reset
transpose
0
reset
simplify chords
display chords
guitar tuner
edit
Autoscroll
slow
fast
+/-
esc
set tempo
stop
Strumming
There is no strumming pattern for this song yet. and get +5 IQ
Hale
Dahil sa’yo sa himig ng aking gitara
Tabbed by: Neonflame_78.1
Tuning: EBGDAE

Intro: CBmAmG (2x)

Verse 1:
      C             Bm
Nakikiusap, may pangungusap
          Am                 G
Na’yong iniwan ng ‘sang  saglit
        C               Bm
May napaasa, dagling lumisan
      Am               G
Napapaamo kahit lumuluha

Interlude: CBmAm - G

Verse 2:
       C              Bm
Kumukuyakoy, parang palaboy
       Am                      G
Namamalik-mata sa ilalim ng buwan
       C                   Bm
Nasa isang tabi, ang lalim ng gabi
             Am                G
Gusto kong umuwi na lang sa bahay

Refrain:

     Em             C             BmEm 
Kasabay ng isang tinig ay nakita ka
      Em      C             Bm    Em
Na sana ay wala nang katapusan pa
       Am
Pero umiwas ka

Chorus:
Em         D                      G
Nang dahil sa’yo  sa himig ng aking gitara
C           Em                     G
Nang dahil sa’yo ako ay malaya na

Ending: (kasabay ng lead)
 CG/BAm - G
 CG/BAm - G

Aus tong kantang ito by hale
by the way.........ung rate ah..
comments din.........(^^,)
Suggest correction
Creating personal tab
Creating personal tab
You can edit any tab online and save it as your Personal.

You can edit, replace or remove any tab part or add personal notes – all changes will be seen only by you.

Personal tabs can be accessed anytime from any device, even offline.
Learn more »
Give kudos to tab author, rate the tab!
1 2 3 4 5
comments
print report bad tab
3 comments total.
0 reply
harubat 10 Jan 14, 2007 11:16 PM

Yeah! Astig., pede tol., thanks sa post., pedeng pangharana! hehehe

0 reply
10guitarz84 153 Apr 20, 2007 01:55 PM

Sa tingin ko po dpat C9 at Bm7 ang ggmitin..
C9
|-32033-|..ganyan..

0 reply
10guitarz84 153 Apr 20, 2007 01:56 PM

eto po yung sa lead:

Guitar 2:

e|-------------2-3-5-7--10-8-7-8~----10-8-7-----------10-10s12-10-|
B|---------3-5------------------------------10~---7-8-------------|
G|---2-4-5--------------------------------------------------------|
D|-5--------------------------------------------------------------|
A|----------------------------------------------------------------|
E|----------------------------------------------------------------|

(continued)
e|---7---10--3-----10--8-7-8-----10s12-10-8-7-10-8-7---|
B|-----------5---8-------------8---------------------8-|
G|-----------------------------------------------------|
D|-----------------------------------------------------|
A|-----------------------------------------------------|
E|-----------------------------------------------------|

(continued)
e|--------3-2-3--5-3-5--7-5~-----------|
B|---------------------------8-7-8-----|
G|-2-4-5---------------------------7s5-|
D|-------------------------------------|
A|-------------------------------------|
E|-------------------------------------|

guest
You may want to rate the tab now too:
select rating
Wanna post a correction for this tab? Suggest correction