Oops, an error
Loading. Please wait.

Day You Said Goodnight Guitar Pro

by Hale
9,271 views 6 this week
2 commentsread comments
1 2 3 4 5
x 9
add to favorites
guitar tuner
Autoscroll
slow
fast
+/-
esc
set tempo
stop
Author
Filesize
Instruments
24 Kb
rhythm guitar #1, rhythm guitar #2, lead guitar, bass
"Day You Said Goodnight"
demo version
Play now

or get full version for Free

×
Get full version now!
Learn and play this song
in Tab Pro
Try for free

or get $10 off Welcome Bonus

Get welcome bonus
Get access to Tab Pro version of “Day You Said Goodnight”!
Tab Pro is a premium guitar tab service, available on PC, Mac, iOS and Android
TRY FOR FREE
Your download will start in 7 seconds
×
Like this song? We have more! Follow us on Facebook for daily tips, lessons and other guitar-related content.
To download “Day You Said Goodnight” Guitar Pro tab click button below
Please note that you must have Guitar Pro software installed on your
computer in order to view this file.
Suggest correction
comments
report bad tab
2 comments total.
-1 reply
mindbug 260 Feb 10, 2008 04:45 AM

hi, first i want to appreciate your effort in making this tab. i just want to make some few corrections on the bass part.

staff 3 (and alike)
G|------------------------|
D|------------------------|
A|------------------------|
E|--0-X--0----------------|


staff 4 (and alike)
G|------------------------|
D|------------------------|
A|--0-X--0----------------|
E|------------------------|


staff 5 (and alike)
G|------6---4-------------|
D|----6---6---------------|
A|--4---------------------|
E|------------------------|

staff 6
G|------------------------|
D|------------------------|
A|-------------0----------|
E|--5----0h5--------------|

staff 22
G|---------------------------------|
D|-------7h8p7--7h8p7--------------|
A|----------------------9--7h9-----|
E|--5------------------------------|

staff 48
G|------------8\9/8----------------|
D|-------7h8---------8-7h8---------|
A|--------------------------7h9----|
E|--5------------------------------|

well, those are the major errors, the finger positions doesn't need to be that hard to get the right sound. simple as possible, right. listen closely to the sound.

thanks!!!

-1 reply
mindbug 260 Feb 10, 2008 08:51 AM

a correction to my correction.....

staff 22
G|-------------------------------------|
D|--------7--7h8p7--7h8p7--------------|
A|-----7--------------------9--7h9-----|
E|--5----------------------------------|


staff 48
G|----------------8\9/8----------------|
D|-------7---7h8---------8-7h8---------|
A|-----7------------------------7h9----|
E|--5----------------------------------|

guest
You may want to rate the tab now too:
select rating