Oops, an error
Loading. Please wait.

Day You Said Goodnight Tab

version 1
version 1

Interactive

by Hale
56,905 views 123 this week
2 commentsread comments
1 2 3 4 5
accurate
x 26
add to favorites
launch autoscroll
font size
0
reset
how to read this tab
guitar tuner
Autoscroll
slow
fast
+/-
esc
set tempo
stop
Help us to improve Ultimate-Guitar.com Take our survey!
×
The Day You Said Goodnight - Hale
tabbed by: michelle francisco
Standard Tuning: EADGBE

[Intro] 

E-B-A
e|--0-0-0-0-0-0--0------0--|
B|--0-0-0-0-0-0--0------0--|
G|--9-9-9-9p8h9--6--or--2--|
D|--9-9-9-9-9-9--7------2--|
A|--7-7-7-7-X-X--7------0--|
E|--0-0-0-0-7-7--5------X--|

[Verse] 

E-B-A-C#m-B-A 2x
e|--0-0-0-0-0-0--0-0-0--0-0-0-0--0-0-0--0--|
B|--0-0-0-0-0-0--0-0-0--0-0-0-0--0-0-0--0--|
G|--9-9-9-9p8h9--6-6-6--6-6-4-4--2-2-2-----|
D|--9-9-9-9-9-9--7-7-7--6-6-4-4--2-2-2-----| 
A|--7-7-7-7-X-X--7-7-7--4-4-2-2--0-0-0-----|
E|--0-0-0-0-7-7--5-5-5--X-X-X-X--X-X-X-----|(x2)


[Refrain] 

C#m-A-F#m-B              (x2)
e|---0-------0-----0---0----|---0-------0--0-----0-----|
B|-----0----0-----0------0--|-----0----0---0-----0-----|
G|----8----6-----2------8---|----8----6----2-----4-----|
D|--------------------------|--------------4-----4-----|
A|--------------------------|--------------4-----2-----|
E|--9-----5-----2-----7-----|--9-----5-----2-----X-----|

[Chorus] 

E-B-F#m-A (x2)
e|--0--0--0--0--|
B|--0--0--0--0--| *actually, from F#m slide to A (577600)
G|--1--4--2--2--|
D|--2--4--4--2--| 
A|--2--2--4--0--|
E|--0--X--2--X--|(x2)


[Intro] 

E-B-A
e|--0-0-0-0-0-0--0------0--|
B|--0-0-0-0-0-0--0------0--|
G|--9-9-9-9p8h9--6--or--2--|
D|--9-9-9-9-9-9--7------2--|
A|--7-7-7-7-X-X--7------0--|
E|--0-0-0-0-7-7--5------X--|


[Verse] 

E-B-A-C#m-B-A (x2)
e|--0-0-0-0-0-0--0-0-0--0-0-0-0--0-0-0--0--|
B|--0-0-0-0-0-0--0-0-0--0-0-0-0--0-0-0--0--|
G|--9-9-9-9p8h9--6-6-6--6-6-4-4--2-2-2-----|
D|--9-9-9-9-9-9--7-7-7--6-6-4-4--2-2-2-----|
A|--7-7-7-7-X-X--7-7-7--4-4-2-2--0-0-0-----|
E|--0-0-0-0-7-7--5-5-5--X-X-X-X--X-X-X-----|(x2)

[Refrain] 

C#m-A-F#m-B (x2)
e|---0-------0-----0---0----|---0-------0--0-----0-----|
B|-----0----0-----0------0--|-----0----0---0-----0-----|
G|----8----6-----2------8---|----8----6----2-----4-----|
D|--------------------------|--------------4-----4-----|
A|--------------------------|--------------4-----2-----|
E|--9-----5-----2-----7-----|--9-----5-----2-----X-----|


[Chorus] 

E-B-F#m-A (x2)
e|--0--0--0--0--|
B|--0--0--0--0--|
G|--1--4--2--2--|
D|--2--4--4--2--|
A|--2--2--4--0--|
E|--0--X--2--X--|(x2)


[Bridge]

C#m-B-A-B
C#m-B-F#m-B


[Chorus] 

E-B-F#m-A (x2)
e|--0--0--0--0--|
B|--0--0--0--0--|
G|--1--4--2--2--|
D|--2--4--4--2--|
A|--2--2--4--0--|
E|--0--X--2--X--|(x2)


[Outro]

E-B-F#m-A
E-B-F#m-A
E-B-A
e|--0-0-0-0-0-0--0------0--|
B|--0-0-0-0-0-0--0------0--|
G|--9-9-9-9p8h9--6--or--2--|
D|--9-9-9-9-9-9--7------2--|
A|--7-7-7-7-X-X--7------0--|
E|--0-0-0-0-7-7--5------X--|



************************************

| h  Hammer-on
| p  Pull-off
| X  dead note

************************************
Suggest correction
comments
print report bad tab
2 comments total.
0 reply
wakokoko_miggy 120 wrote on May 25 2005, 12:00 am

good tab

0 reply
Joshua Rocha02 40 wrote on June 7 2006, 12:57 am

hohohoho

guest
You may want to rate the tab now too:
select rating
Please do not post tabs as comments. Select "correction" instead!