Oops, an error
Loading. Please wait.

Apocalyptic tab

version 3
version 3

Whole song

Interactive

454 views 3 this week
no commentswrite comment
1 2 3 4 5
2 more votes to show rating
add to favorites
×
Save as Personal and add changes to this tab that will be seen only by you. Learn more ›
×
You can save this tab as Personal to edit and correct it or add notes. All changes will be seen only by you. Learn more »
launch autoscroll
font size
0
reset
how to read this tab
guitar tuner
edit
Autoscroll
slow
fast
+/-
esc
set tempo
stop
Tabbed by sixwheeledbeast
Halestorm - Apocalyptic
Tuning: Drop D

Decided to tab this out, for you all.
I have been studying them play live in videos, so I believe it to be accurate.

Now updated to include Joe's (Lead) parts along with Lzzy's (Rhythm) 

PM any questions/corrections thanks, rate please.

#Intro (0:00)
>>Lead
e|----------------------------------------------------|
B|-----------------------------------------------14\--|
G|------------------16b18--14-16-16qb18--14------14\--|
D|-18b20r18p16--16~-------------------------16--------|
A|----------------------------------------------------|
D|----------------------------------------------------|
 |
e|-----------------------------------------|
B|------------------------17-17----17------|
G|---16qb-16b18--14-16/18-------18----18---|
D|-----------------------------------------|
A|-----------------------------------------|
D|-----------------------------------------|
 |
e|-----------------------------------------|
B|-------------------------------------14\-|
G|---16qb-16b18--14-16-16qb18--14------14\-|
D|--------------------------------16-------|
A|-----------------------------------------|
D|-----------------------------------------|
 |
e|-------------------------------------------------------------|
B|-------------------------------------------------------------|
G|------14-14----14-----------14-16-16qb18-14-16-16qb18-14-----|
D|---16-------16----16-----16------------------------------16~-|
A|-------------------------------------------------------------|
D|-------------------------------------------------------------|

>>Rhythm
e|------------------------------------------------------------|
B|------------------------------------------------------------|:
G|-----------2---------------------4-4-4-4-4-------------2----|
D|-4-4-4-4-4-2-4---4-4-4-4------2--4-4-4-4-4---2-2-2-2h4---4--|
A|-4-4-4-4-4-0-4---4-4-4-4------0--2-2-2-2-2------------------|:
D|-4-4-4-4-4-x-4---4-4-4-4-2-4--------------------------------|x2


#Verse (0:16) 
>Lead
e|---------------------------------------------------------|
B|---------------------------------------------------------|
G|---------------------------------------------------------|
D|---------------------------------------------------------|
A|-----------------------0----2-2-2-2-2-----2-2-2-4-0-0-0--|
D|--4-4-4-4-4---4-4-4-4------------------------------------|
 PM = = = = =   = = = =       = = = = =     = = = = = = =
 |
e|----------------------------------------------------------|
B|----------------------------------------------------------|
G|----------------------------------------------------------|
D|----4-----------------------------------------------------|
A|---------4p0-------0-2-3-2-0---2-2-2-2-2-----2-2-2-4-2-0--|
D|--4---44----4~--4-----------------------------------------|
 PM = = ==        =  = = = = =   = = = = =     = = = = = =

>Rhythm - Rest ( I wear my... )


#Pre-Chorus A (0:29)
e|-----------------------------------------------------|
B|-----------------------------------------------------|
G|-----------------------2-----------------------------|
D|----4----4-----4----4--2-----------------------------|
A|---------4----------4--0---2-2-2-2-2---2-2-2-4-2-0-2-|
D|--4---44-----4---44----------------------------------|
 PM = = ==     = = ==        = = = = =   = = = = = = =
 |
e|------------------------------------------------------|
B|------------------------------------------------------|
G|------------------------------------------------------|
D|---0-0-0-0-0------------------------------------------|
A|----------------0-2-3-2-0---4-4-4-4-4---4-4-4-4-3-2-0-|
D|--------------4---------------------------------------|
 PM  = = = = =  = = = = = =   = = = = =   = = = = = = =

>Rhythm - Rest ( Cause we're dysfunctional... )


#Chorus A (0:43)
>Lead & Rhythm ( I'll give you... )
e|------------------------------------------------------------|
B|------------------------------------------------------------|
G|-----------2---------------------4-4-4-4-4---2-2-2-2---2----|
D|-4-4-4-4-4-2-4\--4-4-4-4------2--4-4-4-4-4---2-2-2-2h4---4--|
A|-4-4-4-4-4-0-4\--4-4-4-4------0--2-2-2-2-2------------------|
D|-4-4-4-4-4-x-4\--4-4-4-4-2-4--------------------------------|
 |
e|-------------------------------------------------|
B|-------------------------------------------------|
G|---------2----------------2---2-----4\----6--2---|
D|-4-4-4-4-2-4-4-4--4-4-4-4-2-4-2-4---4\----6--2---|
A|-4-4-4-4-0-4-4-4--4-4-4-4-0-4-0-4---2\----4--0---|
D|-4-4-4-4-x-4-4-4--4-4-4-4-x-4-x-4----------------|


#Post Chorus (0:57)
>Lead
e|-----------------------------------------|
B|-------------------------------------14\-|
G|---16qb-16b18--14-16-16qb18--14------14\-|
D|--------------------------------16-------|
A|-----------------------------------------|
D|-----------------------------------------|
 |
e|-----------------------------------------|
B|------------------------17-17----17------|
G|---16qb-16b18--14-16/18-------18----18---|
D|-----------------------------------------|
A|-----------------------------------------|
D|-----------------------------------------|

>Rhythm
e|------------------------------------------------------------|
B|------------------------------------------------------------|
G|-----------2---------------------4-4-4-4-4-------------2----|
D|-4-4-4-4-4-2-4\--4-4-4-4------2--4-4-4-4-4---2-2-2-2h4---4--|
A|-4-4-4-4-4-0-4\--4-4-4-4------0--2-2-2-2-2------------------|
D|-4-4-4-4-4-x-4\--4-4-4-4-2-4--------------------------------|


#Verse (1:04) 
>Lead
e|---------------------------------------------------------|
B|---------------------------------------------------------|
G|---------------------------------------------------------|
D|---------------------------------------------------------|
A|-----------------------0----2-2-2-2-2-----2-2-2-4-0-0-0--|
D|--4-4-4-4-4---4-4-4-4------------------------------------|
 PM = = = = =   = = = =       = = = = =     = = = = = = =

e|----------------------------------------------------------|
B|----------------------------------------------------------|
G|----------------------------------------------------------|
D|----4-----------------------------------------------------|
A|---------4p0-------0-2-3-2-0---2-------------2-2-2-4-2-0--|
D|--4---44----4~--4-----------------------------------------|
 PM = = ==        =  = = = = =   =             = = = = = =

>Rhythm - Rest ( Give me a red... )


#Pre-Chorus B (1:16)
e|-----------------------------------------------------|
B|-----------------------------------------------------|
G|-----------------------2-----------------------------|
D|----4----4-----4----4--2-----------------------------|
A|---------4----------4--0---2-2-2-2-2---2-2-2-4-2-0-2-|
D|--4---44-----4---44----------------------------------|
 PM = = ==     = = ==        = = = = =   = = = = = = =
 |
e|------------------------------------------------------|
B|------------------------------------------------------|
G|------------------------------------------------------|
D|---0-0-0-0-0------------------------------------------|
A|----------------0-2-3-2-0---4-----------4-4-4-4-3-2-0-|
D|--------------4---------------------------------------|
 PM  = = = = =  = = = = = =   =           = = = = = = =

>Rhythm - Rest ( Cause we're dysfunctional... )


#Chorus B (1:31)
>Lead & Rhythm ( I'll give you... )
e|------------------------------------------------------------|
B|------------------------------------------------------------|
G|-----------2---------------------4-4-4-4-4---2-2-2-2---2----|
D|-4-4-4-4-4-2-4\--4-4-4-4------2--4-4-4-4-4---2-2-2-2h4---4--|
A|-4-4-4-4-4-0-4\--4-4-4-4------0--2-2-2-2-2------------------|
D|-4-4-4-4-4-x-4\--4-4-4-4-2-4--------------------------------|

e|-------------------------------------------------|
B|-------------------------------------------------|
G|---------2----------------2---2-----4\----6--2---|
D|-4-4-4-4-2-4-4-4--4-4-4-4-2-4-2-4---4\----6--2---|
A|-4-4-4-4-0-4-4-4--4-4-4-4-0-4-0-4---2\----4--0---|
D|-4-4-4-4-x-4-4-4--4-4-4-4-x-4-x-4----------------|

e|------------------------------------------------------------|
B|------------------------------------------------------------|
G|-----------2---------------------4-4-4-4-4---2-2-2-2---2----|
D|-4-4-4-4-4-2-4\--4-4-4-4------2--4-4-4-4-4---2-2-2-2h4---4--|
A|-4-4-4-4-4-0-4\--4-4-4-4------0--2-2-2-2-2------------------|
D|-4-4-4-4-4-x-4\--4-4-4-4-2-4--------------------------------|

e|-------------------------------------------------|
B|-------------------------------------------------|
G|---------2----------------2---2-----------6--2---|
D|-4-4-4-4-2-4-4-4--4-4-4-4-2-4-2-4---------6--2---|
A|-4-4-4-4-0-4-4-4--4-4-4-4-0-4-0-4---------4--0---|
D|-4-4-4-4-x-4-4-4--4-4-4-4-x-4-x-4----------------|

#Bridge (1:58)
>Lead & Rhythm ( Ohhhh! )
e|---------------------------------------------------------|
B|---------------------------------------------------------|
G|---------------------------------------------------------|
D|---------------------------------------------------------|
A|----------0--------0-0---------4-4\--------2---4-2-0-2---|
D|--000000000------0-0-0---2-4-4-4-4\------0-2-------------|
 PM ========       =       = = =           = 

e|---------------------------------------------------|
B|---------------------------------------------------|
G|---------------------------------------------------|
D|---------------------------------------------------|
A|--0-0--------0-0---------4-4\--------2---4-2-0-2---|
D|--0-0------0-0-0---2-4-4-4-4\------0-2-------------|
 PM          =       = = =           =               

#Build-up (2:12)
>Lead - (Rest)

>Rhythm ( ...eeer. It's now or never... )
e|------------------------------------------------------|
B|------------------------------------------------------|
G|--4-44-4--44-4--44-4--44-4--7-77-7--77-7--77-7--77-7--|
D|--4-44-4--44-4--44-4--44-4--7-77-7--77-7--77-7--77-7--|
A|--2-22-2--22-2--22-2--22-2--5-55-5--55-5--55-5--55-5--|
D|------------------------------------------------------|
 PM   ==    ==    ==    ==      ==    ==    ==    ==

#Solo (2:16)
>Lead
e|----------14-16-17-16-14-16-14h16p14-----------------------|
B|--16b19~~~--------------------------14----------14\--------|
G|--------------------------------------14--------14\--------|
D|-------------------------------------------16~--14\--------|
A|-----------------------------------------------------------|
D|-----------------------------------------------------------|
 |
e|---------------------------------------|
B|-----------14---14-----17--------------|
G|-----14-16-16qb-16b18h--r16~---14-16~\-|
D|--16-----------------------------------|
A|---------------------------------------|
D|---------------------------------------|
 |
e|-----------------14----16-14-16~~~~~~-----|
B|-/14-17-14-18-14----14--------------------|
G|------------------------------------------|
D|------------------------------------------|
A|------------------------------------------|
D|------------------------------------------|

>Rhythm
e|-----------------------|
B|-----------------------|:
G|-----------------------|
D|--4-----4--3--2--1--0--|
A|--4-----4--3--2--1--0--|:
D|--4-----4--3--2--1--0--|x2

#Chorus C (2:32)
>Lead & Rhythm ( I'll give you... )
e|------------------------------------------------------------|
B|------------------------------------------------------------|
G|-----------2---------------------4-4-4-4-4---2-2-2-2---2----|
D|-4-4-4-4-4-2-4\--4-4-4-4------2--4-4-4-4-4---2-2-2-2h4---4--|
A|-4-4-4-4-4-0-4\--4-4-4-4------0--2-2-2-2-2------------------|
D|-4-4-4-4-4-x-4\--4-4-4-4-2-4--------------------------------|

e|-------------------------------------------------|
B|-------------------------------------------------|
G|---------2----------------2---2-----4\----6--2---|
D|-4-4-4-4-2-4-4-4--4-4-4-4-2-4-2-4---4\----6--2---|
A|-4-4-4-4-0-4-4-4--4-4-4-4-0-4-0-4---2\----4--0---|
D|-4-4-4-4-x-4-4-4--4-4-4-4-x-4-x-4----------------|

e|------------------------------------------------------------|
B|------------------------------------------------------------|
G|-----------2---------------------4-4-4-4-4---2-2-2-2---2----|
D|-4-4-4-4-4-2-4\--4-4-4-4------2--4-4-4-4-4---2-2-2-2h4---4--|
A|-4-4-4-4-4-0-4\--4-4-4-4------0--2-2-2-2-2------------------|
D|-4-4-4-4-4-x-4\--4-4-4-4-2-4--------------------------------|

e|---------------------------------------------------------------|
B|---------------------------------------------------------------|
G|---------2----------------2---2-----4-4-4-4-4\6-6-6-6--2-2-2-2-|
D|-4-4-4-4-2-4-4-4--4-4-4-4-2-4-2-4---4-4-4-4-4\6-6-6-6--2-2-2-2-|
A|-4-4-4-4-0-4-4-4--4-4-4-4-0-4-0-4---2-2-2-2-2\4-4-4-4--0-0-0-0-|
D|-4-4-4-4-x-4-4-4--4-4-4-4-x-4-x-4------------------------------|

#Outro (3:00)
>Lead & Rhythm ( Come On, Ohhh! ... )
e|---------------------------------------------------------------|
B|---------------------------------------------------------------|
G|---------2----------------2---2-----4-4-4-4-4\6-6-6-6--2-2-2-2-|
D|-4-4-4-4-2-4-4-4--4-4-4-4-2-4-2-4---4-4-4-4-4\6-6-6-6--2-2-2-2-|
A|-4-4-4-4-0-4-4-4--4-4-4-4-0-4-0-4---2-2-2-2-2\4-4-4-4--0-0-0-0-|
D|-4-4-4-4-x-4-4-4--4-4-4-4-x-4-x-4------------------------------|

e|--------------------------------------|
B|--------------------------------------|
G|---------2----------------2---2-------|
D|-4-4-4-4-2-4-4-4--4-4-4-4-2-4-2-4-----|
A|-4-4-4-4-0-4-4-4--4-4-4-4-0-4-0-4-----|
D|-4-4-4-4-x-4-4-4--4-4-4-4-x-4-x-4-----|

http://www.ultimate-guitar.com/

            
            
Suggest correction
Creating personal tab
Creating personal tab
You can edit any tab online and save it as your Personal.

You can edit, replace or remove any tab part or add personal notes – all changes will be seen only by you.

Personal tabs can be accessed anytime from any device, even offline.
Learn more »
Give kudos to tab author, rate the tab!
1 2 3 4 5
comments
print report bad tab
guest
You may want to rate the tab now too:
select rating
Wanna post a correction for this tab? Suggest correction