Oops, an error
Loading. Please wait.

Apocalyptic tab

version 4
version 4

Whole song

Interactive

442 views 3 this week
no commentswrite comment
1 2 3 4 5
3 more votes to show rating
add to favorites
×
Save as Personal and add changes to this tab that will be seen only by you. Learn more ›
×
You can save this tab as Personal to edit and correct it or add notes. All changes will be seen only by you. Learn more »
launch autoscroll
font size
0
reset
how to read this tab
guitar tuner
edit
Autoscroll
slow
fast
+/-
esc
set tempo
stop
This is my first guitar tab ever. Please rate :)

Tuning: Drop D (DADGBe)

        Legend
 + + + + + + + + + +
+                   +
+    \=slide down   +
+    /=slide up     +
+    .=palm mute    +
+    p=pull-off     +
+    h=hammer-on    +
+    b=bend         +
+    pb=pre-bend    +
+    w=whammy bar   +
+    v=vibrato      +
+    LR=let ring    +
+                   +
 + + + + + + + + + + 


Intro

Rhythm
e|------------------------------------------------------------|
B|------------------------------------------------------------|
G|-----------2------------------2-4-4-4-4-4\----9-9-9---------|
D|-4-4-4-2-4-2-4----4-4-4-4-2-4-2-4-4-4-4-4\----9-9-9-----7---|
A|-4-4-4-2-4-0-4----4-4-4-4-2-4-0-2-2-2-2-2\----7-7-7-7-9---9-|
D|-4-4-4-2-4---4----4-4-4-4-2-4-------------------------------|(x2)

Lead
e|-------------------------------------------------------------------12-12----12---|
B|----------------12b14-12-10-12/14-10-----10\-----12b14-10-10/12-12-------14----14|
G|-13b14-11p10h11----------------------11--11\--11---------------------------------|
D|---------------------------------------------------------------------------------|
A|---------------------------------------------------------------------------------|
D|---------------------------------------------------------------------------------|

e|----------------------------------------------------------------------------------|
B|----12b14-10-12-14/10-----10\------10-10----10--------10-12-12b14-10-12-12b14-----|
G|-11-------------------11--11\--/11-------11----11--11-------------------------11\-|
D|----------------------------------------------------------------------------------|
A|----------------------------------------------------------------------------------|
D|----------------------------------------------------------------------------------|

Only one guitar here...
e|--------------------------------------------|
B|--------------------------------------------|
G|--------------------------------------------|
D|--------------------------------------------|
A|-4-4-4-4--4-4-4-4--9-9-9-9---9-9-9-11-7-7-7-|
D|-4-4-4-4--4-4-4-4--9-9-9-9---9-9-9-11-7-7-7-|
   . . . .  . . . .  . . . .   . . . .  . . .

e|-------------------------------------------------------|
B|-------------------------------------------------------|
G|-------------------------------------------------------|
D|---4-----4---4-----------------------------------------|
A|---------4---4-----0-2-3-2-0--2-2-2-2-2--2-2-2-3-2-0---|
D|-4---4-4-4-4-4---4-----------------------------------4-|
   .   . .   .     . . . . .    . . . . 

e|---------------------------------------------------------|
B|---------------------------------------------------------|
G|---------------------------------------------------------|
D|---4-----4\-----4-----4---4-----------4\-----------------|
A|---------4\-----------4---4---2-2-2-2-2\---2-2-2-4-0-0-0-|
D|-4---4-4-4\---4---4-4-4-4-4------------------------------|
   .   . .      .   . .   .     . . . .      . . . . . . .

e|----------------------------------------|
B|----------------------------------------|
G|----------7\----------------------------|
D|----------7\----------------------------|
A|--5-5-5-5-5\-----0-2-3-2-0---4-4-4-4-4\-|
D|--------------4-------------------------|
    . . . .                    . . . .

Other guitar comes in
e|----------------|
B|----------------|
G|----------------|
D|----------------|
A|--4-4-4-4-3-2-0-|
D|----------------|

Chorus

e|------------------------------------------------------------|
B|------------------------------------------------------------|
G|-----------2------------------2-4-4-4-4-4\----9-9-9---------|
D|-4-4-4-2-4-2-4----4-4-4-4-2-4-2-4-4-4-4-4\----9-9-9-----7---|
A|-4-4-4-2-4-0-4----4-4-4-4-2-4-0-2-2-2-2-2\----7-7-7-7-9---9-|
D|-4-4-4-2-4---4----4-4-4-4-2-4-------------------------------|

e|----------------------------------------------|
B|----------------------------------------------|
G|---------2-------------2---2---4\--6--2-2-2-2-|
D|-4-4-4-4-2-4-4---4-4-4-2-4-2-4-4\--6--2-2-2-2-|
A|-4-4-4-4-0-4-4---4-4-4-0-4-0-4-2\--4--0-0-0-0-|
D|-4-4-4-4---4-4---4-4-4---4---4----------------|

Interlude

Rythm
e|------------------------------------------------------------|
B|------------------------------------------------------------|
G|-----------2------------------2-4-4-4-4-4\----9-9-9---------|
D|-4-4-4-2-4-2-4----4-4-4-4-2-4-2-4-4-4-4-4\----9-9-9-----7---|
A|-4-4-4-2-4-0-4----4-4-4-4-2-4-0-2-2-2-2-2\----7-7-7-7-9---9-|
D|-4-4-4-2-4---4----4-4-4-4-2-4-------------------------------|

Lead
e|--------------------------------------------------------------12-12----12-----|
B|----12b14-12-10-12/14-10-----10\-----12b14-10-12-12b14-12pb14-------14----14\-|
G|-11----------------------11--11\--11------------------------------------------|
D|------------------------------------------------------------------------------|
A|------------------------------------------------------------------------------|
D|------------------------------------------------------------------------------|

Only one guitar
e|--------------------------------------------|
B|--------------------------------------------|
G|--------------------------------------------|
D|--------------------------------------------|
A|-4-4-4-4--4-4-4-4--9-9-9-9---9-9-9-11-7-7-7-|
D|-4-4-4-4--4-4-4-4--9-9-9-9---9-9-9-11-7-7-7-|
   . . . .  . . . .  . . . .   . . . .  . . .

e|-------------------------------------------------------|
B|-------------------------------------------------------|
G|-------------------------------------------------------|
D|---4-----4---4-----------------------------------------|
A|---------4---4-----0-2-3-2-0--2----------2-2-2-3-2-0---|
D|-4---4-4-4-4-4---4-----------------------------------4-|
   .   . .   .     . . . . .     

e|-----------------------------------------------------|
B|-----------------------------------------------------|
G|-----------------------------------------------------|
D|---4-----4\-----4------------------------------------|
A|---------4\----------------2-2-2-2-2---2-2-2-4-0-0-0-|
D|-4---4-4-4\---4---4-4-4------------------------------|
   .   . .      .   . .      . . . . .   . . . . . . .

e|-------------------------------|
B|-------------------------------|
G|----------7\-------------------|
D|----------7\-------------------|
A|--5-5-5-5-5\----0-2-3-2-0---4\-|
D|--------------4----------------|
    . . . .                  

Other guitar comes in
e|----------------|
B|----------------|
G|----------------|
D|----------------|
A|--4-4-4-4-3-2-0-|
D|----------------|

Chorus

e|------------------------------------------------------------|
B|------------------------------------------------------------|
G|-----------2------------------2-4-4-4-4-4\----9-9-9---------|
D|-4-4-4-2-4-2-4----4-4-4-4-2-4-2-4-4-4-4-4\----9-9-9-----7---|
A|-4-4-4-2-4-0-4----4-4-4-4-2-4-0-2-2-2-2-2\----7-7-7-7-9---9-|
D|-4-4-4-2-4---4----4-4-4-4-2-4-------------------------------|


e|---------------------------------------------------|
B|---------------------------------------------------|
G|---------2-------------2---2---4-4-4-4-4\--6---2---|
D|-4-4-4-4-2-4-4---4-4-4-2-4-2-4-4-4-4-4-4\--6---2---|
A|-4-4-4-4-0-4-4---4-4-4-0-4-0-4-2-2-2-2-2\--4---0---|
D|-4-4-4-4---4-4---4-4-4---4---4---------------------|

e|------------------------------------------------------------|
B|------------------------------------------------------------|
G|-----------2------------------2-4-4-4-4-4\----9-9-9---------|
D|-4-4-4-2-4-2-4----4-4-4-4-2-4-2-4-4-4-4-4\----9-9-9-----7---|
A|-4-4-4-2-4-0-4----4-4-4-4-2-4-0-2-2-2-2-2\----7-7-7-7-9---9-|
D|-4-4-4-2-4---4----4-4-4-4-2-4-------------------------------|


e|-----------------------------------------|
B|-----------------------------------------|
G|---------2-------------2---2-----6---2---|
D|-4-4-4-4-2-4-4---4-4-4-2-4-2-4---6---2---|
A|-4-4-4-4-0-4-4---4-4-4-0-4-0-4---4---0---|
D|-4-4-4-4---4-4---4-4-4---4---4-----------|

Breakdown

e|-----------------------------------------------|
B|-----------------------------------------------|
G|-----------------------------------------------|
D|--------0----0--0-0-------4-4--4\----2---------|
A|--------0----0--0-0-------4-4--4\----2-4-2-0-2-|
D|000000000--0-0--0-0-0-4-4-4-4--4\--2-2---------|
  ........   .        . . .          .

e|------------------------------------------|
B|------------------------------------------|
G|------------------------------------------|
D|-0-0----0--0-0-------4-4--4\----2---------|
A|-0-0----0--0-0-------4-4--4\----2-4-2-0-2-|
D|-0-0--0-0--0-0-0-4-4-4-4--4\--2-2---------|
        .        . . .          .

Pre-solo

e|-------------------------|
B|-------------------------|
G|-4--4--4--4--7--7--7--7\-|
D|-4--4--4--4--7--7--7--7\-|
A|-2--2--2--2--5--5--5--5\-|
D|-------------------------|

Solo

Rythm
e|--------------------------------------------------------------|
B|--------------------------------------------------------------|
G|----------------------------------6--6--6--6--6-6-6-6-6-6-6-6-|
D|-4---4-3-2-1-0----4---4-3-2-1-0---6--6--6--6--6-6-6-6-6-6-6-6-|
A|-4---4-3-2-1-0----4---4-3-2-1-0---4--4--4--4--4-4-4-4-4-4-4-4-|
D|-4---4-3-2-1-0----4---4-3-2-1-0-------------------------------|

Lead
e|--/14v---14-16-17-16-14h16p14-----------------------------------------12-12w----------|
B|-----------------------------14--------14\------10-12-12b14-12b14-/14----14w---10-12v-|
G|-------------------------------16p14---14\--/11---------------------------------------|
D|------------------------------------16------------------------------------------------|
A|---------------------------------------------------------------------------------------|
D|---------------------------------------------------------------------------------------|

e|----12--14--16--16b-|
B|-/14--14--14--14----|
G|--------------------|
D|--------------------|
A|--------------------|
D|--------------------|
   LR-------------

Chorus
e|------------------------------------------------------------|
B|------------------------------------------------------------|
G|-----------2------------------2-4-4-4-4-4\----9-9-9---------|
D|-4-4-4-2-4-2-4----4-4-4-4-2-4-2-4-4-4-4-4\----9-9-9-----7---|
A|-4-4-4-2-4-0-4----4-4-4-4-2-4-0-2-2-2-2-2\----7-7-7-7-9---9-|
D|-4-4-4-2-4---4----4-4-4-4-2-4-------------------------------|


e|---------------------------------------------------|
B|---------------------------------------------------|
G|---------2-------------2---2---4-4-4-4-4\--6---2---|
D|-4-4-4-4-2-4-4---4-4-4-2-4-2-4-4-4-4-4-4\--6---2---|
A|-4-4-4-4-0-4-4---4-4-4-0-4-0-4-2-2-2-2-2\--4---0---|
D|-4-4-4-4---4-4---4-4-4---4---4---------------------|

e|------------------------------------------------------------|
B|------------------------------------------------------------|
G|-----------2------------------2-4-4-4-4-4\----9-9-9---------|
D|-4-4-4-2-4-2-4----4-4-4-4-2-4-2-4-4-4-4-4\----9-9-9-----7---|
A|-4-4-4-2-4-0-4----4-4-4-4-2-4-0-2-2-2-2-2\----7-7-7-7-9---9-|
D|-4-4-4-2-4---4----4-4-4-4-2-4-------------------------------|

e|-------------------------------------------------------|
B|-------------------------------------------------------|
G|---------2-------------2---2---4-4-4-4-4-4-4-4-6---2---|
D|-4-4-4-4-2-4-4---4-4-4-2-4-2-4-4-4-4-4-4-4-4-4-6---2---|
A|-4-4-4-4-0-4-4---4-4-4-0-4-0-4-2-2-2-2-2-2-2-2-4---0---|
D|-4-4-4-4---4-4---4-4-4---4---4-------------------------|(x2)

e|-----------------------------|
B|-----------------------------|
G|---------2-------------2---2-|
D|-4-4-4-4-2-4-4---4-4-4-2-4-2-|
A|-4-4-4-4-0-4-4---4-4-4-0-4-0-|
D|-4-4-4-4---4-4---4-4-4---4---|

            
            
Suggest correction
Creating personal tab
Creating personal tab
You can edit any tab online and save it as your Personal.

You can edit, replace or remove any tab part or add personal notes – all changes will be seen only by you.

Personal tabs can be accessed anytime from any device, even offline.
Learn more »
Give kudos to tab author, rate the tab!
1 2 3 4 5
comments
print report bad tab
guest
You may want to rate the tab now too:
select rating
Wanna post a correction for this tab? Suggest correction