Oops, an error
Loading. Please wait.

Apocalyptic Acoustic tab

version 5
version 5

Whole song

Interactive

61 views 1 this week
no commentswrite comment
1 2 3 4 5
2 more votes to show rating
add to favorites
×
Save as Personal and add changes to this tab that will be seen only by you. Learn more ›
×
You can save this tab as Personal to edit and correct it or add notes. All changes will be seen only by you. Learn more »
launch autoscroll
font size
0
reset
how to read this tab
guitar tuner
edit
Autoscroll
slow
fast
+/-
esc
set tempo
stop
Author
Difficulty
intermediate
Halestorm - Apocalyptic (Acoustic version)
Tuning - Standard
Tabbed by jjhand


[Intro]
   
   with pick-up notes
e|-----------|--------------------------------|----------------------------------|
B|-7h10--7---|---7\---------------------------|---7\----------------5---5---5----|
G|---------9-|--------4----2--4-/6--2----2/---|--------4/----2-4-/6-------6---6--|
D|-----------|------------------------4-------|----------------------------------|
A|-----------|--------------------------------|----------------------------------|
E|-----------|--------------------------------|----------------------------------|

e|-------------------------------------|-----------------------------------7--|
B|---7---------------------------------|------7-7---7--------7--9-/10-9-------|
G|-------\4----2--4-/6--2--------2/----|---/8-----8---8-----------------------|
D|-------------------------4~----------|--------------------------------------|
A|-------------------------------------|--------------------------------------|
E|-------------------------------------|--------------------------------------|


[Verse 1]

e|----------------------------------|--------------------------------|
B|-7--------------------------------|--------------------------------|
G|----------------------------------|-------4------------------------|
D|------------------------4----7----|-------4------------------------|
A|---------4--------------4----7----|-2-2-2-2----------2-2-2---------|
E|---------2--------2-2-2-2----5----|------------------------2h5-5-5-|

e|----------------------------------|----------------------------------|
B|----------------------------------|----------------------------------|
G|----------------------------------|----------------------------------|
D|---4------------------------------|----------------------------------|
A|---------0----4-----0--2--2b3r--0-|-2---x-x-x--------2-2-2-2h3p2-----|
E|-2---2-2-2----2-------------------|------------------------------5-3-|



[Prechorus]
e|----------------------------------|-------------------------------|
B|----------------------------------|-------------------------------|
G|----------------------------------|-------------------------------|
D|---4-----4----------4-----4-------|---------4---------------------|
A|---------4----------------4-------|-2-2-2-2-2-------2-2-2-4-0-0-0-|
E|-2---2-2-2--------2---2-2-2---5---|-------------------------------|

e|----------------------------------|-------------------------------|
B|----------------------------------|-------------------------------|
G|----------------------------------|-------------------------------|
D|----------------------------------|-------------------------------|
A|-5-5-5-5-5----------0-2-2b3r--0---|-4-4-4-4-4-------4-4-4-4-3-2---|
E|------------------2---------------|-----------------------------5-|



[Chorus]

e|----------------------------------|---------------------------------|
B|----------------------------------|---------------------------------|
G|-----------2----------------------|-4-4-4-4-4------------------2----|
D|-4-4-4-4-4-2-4------4-4-4-4-2-4-2-|-4-4-4-4-4-x-x----2-2-2-2-4-2-4--|
A|-4-4-4-4-4-0-4------4-4-4-4-2-4-2-|-2-2-2-2-2-x-x----2-2-2-2-4-0-4--|
E|-2-2-2-2-2---2------2-2-2-2-0-2-0-|------------------0-0-0-0-2---2--|

e|----------------------------------|---------------------------------|
B|----------------------------------|---------------------------------|
G|---------2---------------2---2----|------------------6------2-------|
D|-4-4-4-4-2-4-4-4-4-4-4-4-2-4-2-4--|------------------6------2-------|
A|-4-4-4-4-0-4-4-4-4-4-4-4-0-4-0-4--|-2----------------4------0-------|
E|-2-2-2-2---2-2-2-2-2-2-2---2---2--|---------------------------------|



[Before Verse 2]
e|--------------------------------|----------------------------------|
B|---7\---------------------------|---7\----------------5---5---5----|
G|--------4----2--4-/6--2----2/---|--------4/----2-4-/6-------6---6--|
D|------------------------4-------|----------------------------------|
A|--------------------------------|----------------------------------|
E|--------------------------------|----------------------------------|



[Verse 2]
e|----------------------------------|----------------------------------|
B|----------------------------------|----------------------------------|
G|----------------------------------|-------4--------------------------|
D|------------------------4----7----|-------4--------------------------|
A|---------4--------------4----7----|-2-2-2-2----------2-2-2-2h4-0-0-0-|
E|---2-2-2-2--------2-2-2-2----5----|----------------------------------|

e|----------------------------------|----------------------------------|
B|----------------------------------|----------------------------------|
G|----------------------------------|----------------------------------|
D|---4------------------------------|----------------------------------|
A|---------0----4-----0--2--2b3r--0-|-2----------------2-2-2-2h3p2-----|
E|-2---2-2-2----2-------------------|------------------------------5-3-|



[Prechorus]
e|----------------------------------|-------------------------------|
B|----------------------------------|-------------------------------|
G|----------------------------------|-------------------------------|
D|---4-----4----------4-----4-------|-4-4-4-4-4-------4-4-4---------|
A|---------4----------------4-------|-2-2-2-2-2-------2-2-2-4-0-0-0-|
E|-2---2-2-2--------2---2-2-2---5---|-------------------------------|

e|----------------------------------|-------------------------------|
B|----------------------------------|-------------------------------|
G|----------------------------------|-------------------------------|
D|-4-4-4-4-4------------------------|-------------------------------|
A|-5-5-5-5-5----------0-2-2b3r--0---|-4---------------4-4-4-4-3-2---|
E|------------------2---------------|-----------------------------5-|



[Chorus 2]

e|----------------------------------|---------------------------------|
B|----------------------------------|---------------------------------|
G|-----------2----------------------|-4-4-4-4-4------------------2----|
D|-4-4-4-4-4-2-4------4-4-4-4-2-4-2-|-4-4-4-4-4--------2-2-2-2-4-2-4--|
A|-4-4-4-4-4-0-4------4-4-4-4-2-4-2-|-2-2-2-2-2--------2-2-2-2-4-0-4--|
E|-2-2-2-2-2---2------2-2-2-2-0-2-0-|------------------0-0-0-0-2---2--|

e|----------------------------------|---------------------------------|
B|----------------------------------|---------------------------------|
G|---------2---------------2---2----|-4-4-4-4-4--------6------2-------|
D|-4-4-4-4-2-4-4-4-4-4-4-4-2-4-2-4--|-4-4-4-4-4--------6------2-------|
A|-4-4-4-4-0-4-4-4-4-4-4-4-0-4-0-4--|-2-2-2-2-2--------4------0-------|
E|-2-2-2-2---2-2-2-2-2-2-2---2---2--|---------------------------------|

e|----------------------------------|---------------------------------|
B|----------------------------------|---------------------------------|
G|-----------2--------------------2-|-4-4-4-4-4------------------2----|
D|-4-4-4-4-4-2-4------4-4-4-4-2-4-2-|-4-4-4-4-4-x-x----2-2-2-2-4-2-4--|
A|-4-4-4-4-4-0-4------4-4-4-4-2-4-0-|-2-2-2-2-2-x-x----2-2-2-2-4-0-4--|
E|-2-2-2-2-2---2------2-2-2-2-0-2---|------------------0-0-0-0-2---2--|

e|----------------------------------|---------------------------------|
B|----------------------------------|---------------------------------|
G|---------2---------------2---2----|------------------6------2-------|
D|-4-4-4-4-2-4-4-4-4-4-4-4-2-4-2-4--|------------------6------2-------|
A|-4-4-4-4-0-4-4-4-4-4-4-4-0-4-0-4--|-2----------------4------0-------|
E|-2-2-2-2---2-2-2-2-2-2-2---2---2--|---------------------------------|



[Bridge]

   very fast
e|-----------------------------------------|-------------------------------------|
B|-3-3-3-3-3-3-3-3-3-------3---3---3-------|-------------------------------------|
G|-2-2-2-2-2-2-2-2-2-------2---2---2-------|-------------------------------------|
D|-0-0-0-0-0-0-0-0-0-------0---0---0---2---|-4--4--4----4------2--2--------------|
A|-0-0-0-0-0-0-0-0-0-------0---0---0---2---|-4--4--4----4------2--2----2h4-2-0-2-|
E|-------------------------------------0---|-2--2--2----2------0--0--------------|

e|-----------------------------------------|-------------------------------------|
B|---3---3-----------------3--3----3-------|-------------------------------------|
G|---2---2-----------------2--2----2-------|-------------------------------------|
D|---0---0---------x---x---0--0----0---2---|-4--4--4----4------2--2--------------|
A|---0---0---------x---x---0--0----0---2---|-4--4--4----4------2--2----2h4-2-0-2-|
E|-------------------------------------0---|-2--2--2----2------0--0--------------|

e|-----------------------------------------------------------------|
B|-----------------------------------------------------------------|
G|-x-x-4-4-x-x-4-4-x-x-4-4-x-x-4-4-x-x-7-7-x-x-7-7-x-x-6-6-x-x-6---|
D|-x-x-4-4-x-x-4-4-x-x-4-4-x-x-4-4-x-x-7-7-x-x-7-7-x-x-6-6-x-x-6---|
A|-x-x-2-2-x-x-2-2-x-x-2-2-x-x-2-2-x-x-5-5-x-x-5-5-x-x-4-4-x-x-4---|
E|-----------------------------------------------------------------|



[Solo]
                                 rake
e|---------------2-4-5-4-|-2h4p2-----------------------|-----------------------------|
B|-/7~-------------------|-------2------2/-------------|-------------5-----5-----5---|
G|-----------------------|--------2-----2/---------2-4-|-/6-/6~------6--6--6--6--6---|
D|-----------------------|---------4~------------4-----|-----------------------------|
A|-----------------------|-----------------------------|-----------------------------|
E|-----------------------|-----------------------------|-----------------------------|

e|-----------------------|-0---1---2---4---4b5r~~~----------------------------|
B|-5-------------------2-|---2---2---2---2------------------------------------|
G|-6---4\2--4/5~---------|----------------------------------------------------|
D|-----------------------|----------------------------------------------------|
A|-----------------------|----------------------------------------------------|
E|-----------------------|----------------------------------------------------|



[Chorus 2]

e|----------------------------------|---------------------------------|
B|----------------------------------|---------------------------------|
G|-----------2----------------------|-4-4-4-4-4------------------2----|
D|-4-4-4-4-4-2-4------4-4-4-4-2-4-2-|-4-4-4-4-4--------2-2-2-2-4-2-4--|
A|-4-4-4-4-4-0-4------4-4-4-4-2-4-2-|-2-2-2-2-2--------2-2-2-2-4-0-4--|
E|-2-2-2-2-2---2------2-2-2-2-0-2-0-|------------------0-0-0-0-2---2--|

e|----------------------------------|---------------------------------|
B|----------------------------------|---------------------------------|
G|---------2---------------2---2----|-4-4-4-4-4--------6------2-------|
D|-4-4-4-4-2-4-4-4-4-4-4-4-2-4-2-4--|-4-4-4-4-4--------6------2-------|
A|-4-4-4-4-0-4-4-4-4-4-4-4-0-4-0-4--|-2-2-2-2-2--------4------0-------|
E|-2-2-2-2---2-2-2-2-2-2-2---2---2--|---------------------------------|

e|----------------------------------|---------------------------------|
B|----------------------------------|---------------------------------|
G|-----------2--------------------2-|-4-4-4-4-4------------------2----|
D|-4-4-4-4-4-2-4------4-4-4-4-2-4-2-|-4-4-4-4-4-x-x----2-2-2-2-4-2-4--|
A|-4-4-4-4-4-0-4------4-4-4-4-2-4-0-|-2-2-2-2-2-x-x----2-2-2-2-4-0-4--|
E|-2-2-2-2-2---2------2-2-2-2-0-2---|------------------0-0-0-0-2---2--|

e|----------------------------------|---------------------------------|
B|----------------------------------|---------------------------------|
G|---------2---------------2---2----|-4-4-4-4-4-4-4-4-6-6-6-6-2-2-2-2-|
D|-4-4-4-4-2-4-4-4-4-4-4-4-2-4-2-4--|-4-4-4-4-4-4-4-4-6-6-6-6-2-2-2-2-|
A|-4-4-4-4-0-4-4-4-4-4-4-4-0-4-0-4--|-2-2-2-2-2-2-2-2-4-4-4-4-0-0-0-0-|
E|-2-2-2-2---2-2-2-2-2-2-2---2---2--|---------------------------------|

e|----------------------------------|---------------------------------|
B|----------------------------------|---------------------------------|
G|---------2---------------2---2----|-4-4-4-4-4-4-4-4-6-6-6-6-2-2-2-2-|
D|-4-4-4-4-2-4-4-4-4-4-4-4-2-4-2-4--|-4-4-4-4-4-4-4-4-6-6-6-6-2-2-2-2-|
A|-4-4-4-4-0-4-4-4-4-4-4-4-0-4-0-4--|-2-2-2-2-2-2-2-2-4-4-4-4-0-0-0-0-|
E|-2-2-2-2---2-2-2-2-2-2-2---2---2--|---------------------------------|

e|----------------------------------|---------------------------------|
B|----------------------------------|---------------------------------|
G|---------2---------------2---2----|---------------------------------|
D|-4-4-4-4-2-4-4-4-4-4-4-4-2-4-2-4--|---------------------------------|
A|-4-4-4-4-0-4-4-4-4-4-4-4-0-4-0-4--|---------------------------------|
E|-2-2-2-2---2-2-2-2-2-2-2---2---2--|---------------------------------|



************************************

| x   Dead note
| h   Hammer-on
| p   Pull-off
| r   Release
| b   Bend
| /   Slide up
| \   Slide down
| ~   Vibrato

************************************

            
            
Suggest correction
Creating personal tab
Creating personal tab
You can edit any tab online and save it as your Personal.

You can edit, replace or remove any tab part or add personal notes – all changes will be seen only by you.

Personal tabs can be accessed anytime from any device, even offline.
Learn more »
Give kudos to tab author, rate the tab!
1 2 3 4 5
comments
print report bad tab
guest
You may want to rate the tab now too:
select rating
Wanna post a correction for this tab? Suggest correction