Oops, an error
Loading. Please wait.

Better Sorry Than Safe Tab

version 1
version 1

Whole song

Interactive

2,040 views 6 this week
no commentswrite comment
1 2 3 4 5
1 last vote to show rating
add to favorites
launch autoscroll
font size
0
reset
how to read this tab
guitar tuner
Autoscroll
slow
fast
+/-
esc
set tempo
stop
Help us to improve Ultimate-Guitar.com Take our survey!
×
Author
Tuning
D# G# C# F# A# D#
 Better Sorry Than Safe- Halestorm

Tuning- half step down   

Tabbed by Poppyrocks


Intro (guitar 1)

e|---------------------------------------------------------------------------|
B|--9------------9------------9----------------------------------------9-----|
G|--11b13--x3----11b13br11--------9h11p9-------9h11p9------9-------9---11b13-|
D|----------------------------------------11-----------11------11------------|
A|---------------------------------------------------------------------------|
E|---------------------------------------------------------------------------|


Intro (guitar 2)
e|---------------------------------------------------------------------------|
B|---------------------------------------------------------------------------|
G|---6---6-------------------------------------------------------------------|
D|---6---6------7---7-------9------------------------------------------------|
A|---4---4------7---7-------9------------------------------------------------|
E|--------------5---5-------7------------------------------------------------|

Verse
e|---------------------------------------------------------------------------|
B|---------------------------------------------------------------------------|
G|-------9--9-------6--6-------9p8-------9p8-------9p8-----------------------|
D|----11---------7----------9---------9--------9-----------------------------|x4
A|---------------------------------------------------------------------------|
E|---------------------------------------------------------------------------|



Pre Chorus
e|---------------------------------------------------------------------------|
B|---------------------------------------------------------------------------|
G|---------------------------------------------------------------------------|
D|-----4------------7--------------9-----------------------------------------|
A|-----4---x8-------7-----x4-------9-----------------------------------------|
E|-----2------------5--------------7-----------------------------------------|
       PM          PM


Chorus (guitar 1)

e|---12--12--14p12------12--------------11--11----12p11----------------------|
B|------------------14--------(x3)------------------------14----12-----------|
G|---------------------------------------------------------------------------|
D|---------------------------------------------------------------------------|
A|---------------------------------------------------------------------------|
E|---------------------------------------------------------------------------|

e|-----------12-----------12----------12------------12-----------------------|
B|---12h14--------12h14--------12h14--------12h14-------14p12----------------|
G|---------------------------------------------------------------------------|
D|---------------------------------------------------------------------------|
A|---------------------------------------------------------------------------|
E|---------------------------------------------------------------------------|

e|---------------------------------------------------------------------------|
B|---9------------------12----------------------9----------------------------|
G|-------11p9---11/13-------11-9--------11p9----11b13(gradually release-while|
D|----------------------------------------------------picking to create------|
A|----------------------------------------------------harmonics)-------------|
E|---------------------------------------------------------------------------|

e|------------------------------------------------------7--------------------|
B|------------------12-------------------------------------------------------|
G|--9h11p9-----9--------11---9----9\8----6\4-----6p4--------6----------------|
D|----------11---------------------------------------------------------------|
A|---------------------------------------------------------------------------|
E|---------------------------------------------------------------------------|


Chorus (guitar 2)
e|---------------------------------------------------------------------------|
B|---------------------------------------------------------------------------|
G|------9---9----------------6--6--------------------------------------------|
D|------9---9------7--7------6--6-----9--9-----------------------------------|x3
A|------7---7------7--7------4--4-----9--9-----------------------------------|
E|-----------------5--5---------------7--7-----------------------------------|

e|---------------------------------------------------------------------------|
B|---------------------------------------------------------------------------|
G|---------------------------------------------------------------------------|
D|-7--7--7--7--7--7--7--7-------9-------------11--11-----7---7-----9---------|
A|-7--7--7--7--7--7--7--7-------9-------------11--11-----7---7-----9---------|
E|-5--5--5--5--5--5--5--5-------7-------------9---9------5---5-----7---------|
   PM -  -  -  -  -  -  -

Repeat verse,pre verse, chorus

Solo (guitar 1)

e|---------------------------------------------------------------------------|
B|---9----------9----------------------12----------------------9-------------|
G|---11b13-x3---11b13br11---9h11p9-----14b16br14--13h14p13-----11b13br11-----|
D|---------------------------------------------------------------------------|
A|---------------------------------------------------------------------------|
E|---------------------------------------------------------------------------|


e|-------------------------------------12h14--15b16br15-12----17b19br17------|
B|--------------------------------/14----------------------------------------|
G|---11p9-----9\8----8\6---6-------------------------------------------------|
D|---------------------------------------------------------------------------|
A|---------------------------------------------------------------------------|
E|---------------------------------------------------------------------------|


e|----16h17p16---------------------------------------------------------------|
B|--------------------14h17-------14h17---17/19p17---19b21br19---17--17------|
G|---------------/16----------16---------------------------------------------|
D|---------------------------------------------------------------------------|
A|---------------------------------------------------------------------------|
E|---------------------------------------------------------------------------|


e|----------------------19--------------------------17p16--------------------|
B|----19p17------19b21-------21br19-------17h19-------------17-17------------|
G|---------------------------------------------------------------------------|
D|---------------------------------------------------------------------------|
A|---------------------------------------------------------------------------|
E|---------------------------------------------------------------------------|

Solo (guitar 2)
e|---------------------------------------------------------------------------|
B|---------------------------------------------------------------------------|
G|----6--6----------------------4--4-----------------------------------------|
D|----6--6-----7--7------2-2----4--4-----------------------------------------|x2
A|----4--4-----7--7------2-2----2--2-----------------------------------------|
E|-------------5--5------0-0-------------------------------------------------|


e|---------------------------------------------------------------------------|
B|---------------------------------------------------------------------------|
G|---------------------------------------------------------------------------|
D|----7--------------9-------------------------------------------------------|
A|----7----(x16)-----9----(x12)----------------------------------------------|
E|----5--------------7-------------------------------------------------------|
      PM             PM

Outro chords
e|---------------------------------------------------------------------------|
B|---------------------------------------------------------------------------|
G|----11--11---------8--8----------------------------------------------------|
D|----11--11---9-9---8--8---11--11-------------------------------------------|x3
A|----9---9----9-9---6--6---11--11-------------------------------------------|
E|-------------7-7----------9---9--------------------------------------------|


e|---------------------------------------------------------------------------|
B|---------------------------------------------------------------------------|
G|------------------------11-------8---------------------------8-------------|
D|---9---9---9-----9------11---9---8---11----9-9--9-----11-----8-------------|
A|---9---9---9-----9------9----9---6---11----9-9--9-----11-----6-------------|
E|---7---7---7-----11----------7-------9-----7-7--7-----9--------------------|

************************************


| /   slide up
| \   slide down
| h   hammer-on
| p   pull-off
| ~   vibrato
| +   harmonic
| x   Mute note
| b   Bend
| pb  Pre-bend
| br  Bend release
| pbr Pre-bend release
| brb Bend release bend

************************************
Suggest correction
Give kudos to tab author, rate the tab!
1 2 3 4 5
comments
print report bad tab
guest
You may want to rate the tab now too:
select rating
Wanna post a correction for this tab? Suggest correction