Oops, an error
Loading. Please wait.

Daughters Of Darkness Tab

version 1
version 1

Whole song

Interactive

6,399 views 18 this week
1 commentread comment
1 2 3 4 5
excellent!
x 7
add to favorites
launch autoscroll
font size
0
reset
how to read this tab
guitar tuner
Autoscroll
slow
fast
+/-
esc
set tempo
stop
Help us to improve Ultimate-Guitar.com Take our survey!
×
Author
Difficulty
Tuning
intermediate
D A D G B E
Daughters of Darkness
Halestorm
Tabbed by Catherine
Drop D Tuning

*Drums and Na na na’s*

Intro:
E-------------------------|
B-------------------------|
G-------------------------|     x4
D---6--6-6--6-4-----------|
A---6--6-6--6-4-----------|
D---6--6-6--6-4-----------|

Verse:
E--------------------------------------|
B--------------------------------------|
G--------------------------------------|             x2
D---6-6-6-6-6-6-6-6-4-4-4-4-4-4-4-4----|
A---6-6-6-6-6-6-6-6-4-4-4-4-4-4-4-4----|
D---6-6-6-6-6-6-6-6-4-4-4-4-4-4-4-4----|

Pre-Chorus:

E-------------------------------------------------------|
B-------------------------------------------------------|
G-------------------------------------------------------|
D---2--2-4--4-6-6-6-6-6-6--2--2-4--4-1-1-1-1-1-1-1-1----|
A---2--2-4--4-6-6-6-6-6-6--2--2-4--4-1-1-1-1-1-1-1-1----|
D---2--2-4--4-6-6-6-6-6-6--2--2-4--4-1-1-1-1-1-1-1-1----|
                                  pm * * * * * * * *

Chorus:

E---------------------------------------------------------------------|
B---------------------------------------------------------------------|
G---------------------------------------------------------------------|
D---6-6-6-6-6-6-6-6-4-4-4-4-4-4-4-4-3-3-3-3-3-3-3-3-2-2-2-2-1-1-1-1---|
A---6-6-6-6-6-6-6-6-4-4-4-4-4-4-4-4-3-3-3-3-3-3-3-3-2-2-2-2-1-1-1-1---|
D---6-6-6-6-6-6-6-6-4-4-4-4-4-4-4-4-3-3-3-3-3-3-3-3-2-2-2-2-1-1-1-1---|

E----------------------------------------------------------------------------|
B----------------------------------------------------------------------------|
G-------------------3-3-3-3-3-3-3-3-4-4-4-4-4-4-4-4-6-6-6-6-6-6-6-6----------|
D---6-6-6-6-6-6-6-6-3-3-3-3-3-3-3-3-4-4-4-4-4-4-4-4-6-6-6-6-6-6-6-6----------|
A---6-6-6-6-6-6-6-6-1-1-1-1-1-1-1-1-2-2-2-2-2-2-2-2-4-4-4-4-4-4-4-4----------|
D---6-6-6-6-6-6-6-6----------------------------------------------------------|

Intro
Verse 2
Pre-Chorus 2
Chorus 2

Intro Again, then:
Bridge (“never down, never out”):
E----------------------------------------------------------|
B----------------------------------------------------------|
G-----------4--4-4-----------------------------------------|    x2
D---2--2-2--4--4-4--4--4-4---6-6--4-6-8-9--6--9-8-4-6------|
A---2--2-2--2--2-2--4--4-4---6-6--4-6-8-9--6--9-8-4-6------|
D---2--2-2----------4--4-4---6-6--4-6-8-9--6--9-8-4-6------|

E------------------------------------------------------|
B------------------------------------------------------|
G------------------------------------------------------|
D--2-2-2-2-2-2-2-2-1-1-1-1-1-1-1-1-1-1-1-1-1-1-1-1-6---|
A--2-2-2-2-2-2-2-2-1-1-1-1-1-1-1-1-1-1-1-1-1-1-1-1-6---|
D--2-2-2-2-2-2-2-2-1-1-1-1-1-1-1-1-1-1-1-1-1-1-1-1-6---|
                pm * * * * * * * * * * * * * * * * (let fade away)

Solo (my first tabbed solo!):
E-----------------11-/18v-----------11-/18b19--------|
B-----10v---9-12---------------9-12------------------|
G----------------------------------------------------|
D----------------------------------------------------|
A----------------------------------------------------|
D----------------------------------------------------|

*Make the vibrato really gooey and long on the notes in the solo

Chorus
Outro
E----------------------------|
B----------------------------|
G----------------------------|  x12
D---6--6-6--6-4--------------|
A---6--6-6--6-4--------------|
D---6--6-6--6-4--------------|

Kind criticism is very welcome. Please let me know if I've done anything wrong. Enjoy!
Suggest correction
comments
print report bad tab
1 comment total.
0 reply
catjaro 113 wrote on August 19 2013, 09:10 pm

Solo should be:

E-----------------11-/16v-----------11-/18b19--------|
B-----11v---9-12---------------9-12------------------|
G----------------------------------------------------|
D----------------------------------------------------|
A----------------------------------------------------|
D----------------------------------------------------|

guest
You may want to rate the tab now too:
select rating
Wanna post a correction for this tab? Suggest correction