Oops, an error
Loading. Please wait.

Familiar Taste Of Poison Tab

version 1
version 1

Whole song

Interactive

58,343 views 87 this week
7 commentsread comments
1 2 3 4 5
x 41
add to favorites
launch autoscroll
font size
0
reset
how to read this tab
guitar tuner
Autoscroll
slow
fast
+/-
esc
set tempo
stop
Help us to improve Ultimate-Guitar.com Take our survey!
×
Author
Difficulty
novice
Song: Familiar Taste of Poison
Artist: Halestorm
Tuning: Standard
Tab by: Dan DeVita

Key:

* = Harmonic (for this song, the harmonics represented are all bridge
harmonics)

. = Palm Mute

Live, Halestorm does this song with just one guitar, but for 
the sake of completeness I've tabbed out the few sections in the 
song where there are two guitar parts simultaneously.


[Intro/Verse] - 9x

Guitar 1
e|--------------------------------|
B|--------------------------------|
G|--------------------------------|
D|----9-----9---------9-------9---|
A|--7-----7-----7---7-------7-----|
E|0-----0-----0---8-----8-7-----7-|


Guitar 2 (on the 2nd, 4th, and 7th times of Guitar 1's riff)

I'm pretty sure that Joes uses a guitar with a whammy bar to get the vibrato
on the last harmonic. If you don't have one, you can achieve a similar effect
by bending your guitar's neck.
e|-----------------------------12*v|
B|--------------------------12*----|
G|-----------------------12*-------|
D|---------------------------------|
A|---------------------------------|
E|---------------------------------|


[Prechorus] - 1x

e|----------------------------------|
B|----------------------------------|
G|----------------------0-------7---|
D|----9-----9---------9---9---7---7-|
A|--7-----7-----7--10-------9-------|
E|0-----0-----0---------------------|



[Chorus]

e|-------------------------------------------------------------------|
B|-------------------------------------------------------------------|
G|----0-----0----------0-----0----------0-----0----------0-------7---| 3x
D|--2-----2-----2----4-----4-----4----5-----5-----5----9---9---7---7-|
A|3-----3-----3----5-----5-----5----7-----7-----7----10-------9------|
E|-------------------------------------------------------------------|

e|----------------------------------12*v|
B|-------------------------------12*----|
G|----0-----0-----------------12*-------|
D|--2-----2-----2---4~~-----------------|
A|3-----3-----3-----5~~-----------------|
E|--------------------------------------|


[Verse 2]

Guitar 1 - 8x
e|--------------------------------|
B|--------------------------------|
G|--------------------------------|
D|----9-----9---------9-------9---|
A|--7-----7-----7---7-------7-----|
E|0-----0-----0---8-----8-7-----7-|


Guitar 2 (on the 2nd and 5th time through Guitar 1's riff)

e|-----------------------------12*v|
B|--------------------------12*----|
G|-----------------------12*-------|
D|---------------------------------|
A|---------------------------------|
E|---------------------------------|

(This riff starts on the 7th time through Guitar 1's riff)
e|--------------------------------------------------|
B|--------------------------------------------------|
G|16-16-------14-14-------12-12-------11-11---------|
D|------17-17-------16-16-------14-14-------12-12---|
A|--------------------------------------------------|
E|--------------------------------------------------|


[Prechorus] - 1x

e|----------------------------------|
B|----------------------------------|
G|----------------------0-------7---|
D|----9-----9---------9---9---7---7-|
A|--7-----7-----7--10-------9-------|
E|0-----0-----0---------------------|


[Chorus]

e|-------------------------------------------------------------------|
B|-------------------------------------------------------------------|
G|----0-----0----------0-----0----------0-----0----------0-------7---| 3x
D|--2-----2-----2----4-----4-----4----5-----5-----5----9---9---7---7-|
A|3-----3-----3----5-----5-----5----7-----7-----7----10-------9------|
E|-------------------------------------------------------------------|

e|-----------------------------------------------------|
B|-----------------------------------------------------|
G|----0-----0-----------0------------------------------|
D|--2-----2-----2-----4--------------------------------|
A|3-----3-----3-----5----------7-7-7-7-7-7-7-7-7-7-7-7-|
E|-----------------------------5-5-5-5-5-5-5-5-5-5-5-5-|
                               . . . . . . . . . . . .

[Bridge]

e|------------------------------------------|
B|------------------------------------------|
G|------------------------------------------|
D|--------2---2----5---5----7---7---7--7-7--|
A|--------2---2----5---5----7---7---7--7-7--|
E|7-5-3b--0---0----3---3----5---5---5--5-5--|

e|-----------------------------------------------------------------------|
B|-----------------------------------------------------------------------|
G|-----------------------------------------------------------------------|
D|--------2---2----5---5----7---7---7---7--9-9-9-9-9-9-9-9-9-9-9-9-------|
A|--------2---2----5---5----7---7---7---7----9-9-9-9-9-9-9-9-9-9-9-------|
E|7-5-3b--0---0----3---3----5---5---5---5--7-7-7-7-7-7-7-7-7-7-7-7-5-6-7-|


[Chorus]

Guitar 1
e|--------------------|
B|--------------------|
G|5---7---9---12--11--|
D|5---7---9---12--11--|  2x
A|3---5---7---10---9--|
E|--------------------|

Guitar 2
e|-------------------------------------------------------------------|
B|-------------------------------------------------------------------|
G|----0-----0----------0-----0----------0-----0----------0-------7---| 2x
D|--2-----2-----2----4-----4-----4----5-----5-----5----9---9---7---7-|
A|3-----3-----3----5-----5-----5----7-----7-----7----10-------9------|
E|-------------------------------------------------------------------|


Both Guitars
e|------------------------------------------------------------|
B|------------------------------------------------------------|
G|5---7---9---7---5---7-------7\5---5/7---7/9---9\7---5---5-7-|
D|5---7---9---7---5---7---2---7\5---5/7---7/9---9\7---5---5-7-|
A|3---5---7---5---3---5---2---5\3---3/5---5/7---7\5---3---3-5-|
E|------------------------0---------------------------------5-|


[Outro]

e|------------------------------------|
B|------------------------------------|
G|--------------------------------9~~-|
D|----9-----9---------9-------9---9~~-|
A|--7-----7-----7---7-------7-----7~~-|
E|0-----0-----0---8-----8-7-----7-0~~-|

Strum the last chord very easily, hitting each note in turn
during your downstroke.  Joe uses his whammy bar on that last chord
as well.


And that's a wrap!



************************************

| *  Natural harmonic
| ~  Vibrato
| .  Staccato
| b  Bend
| /  Slide up
| \  Slide down

************************************
Suggest correction
comments
print report bad tab
7 comments total. Showing first comments.
0 reply
MusicMan24 1,114 Aug 10, 2009 02:55 PM

Awesome tab, 5 *****

0 reply
DanDeVita 72 Aug 13, 2009 12:46 PM

Thanks!!! Glad it was helpful :)!

0 reply
wojo26 10 Sep 17, 2009 07:40 PM

Very good tab. How about It's Not You next?

guest
You may want to rate the tab now too:
select rating
Wanna post a correction for this tab? Suggest correction