Oops, an error
Loading. Please wait.

Gonna Get Mine tab

version 1
version 1

Whole song

Interactive

205 views 24 this week
no commentswrite comment
1 2 3 4 5
x 3
add to favorites
×
Save as Personal and add changes to this tab that will be seen only by you. Learn more ›
×
You can save this tab as Personal to edit and correct it or add notes. All changes will be seen only by you. Learn more »
launch autoscroll
font size
0
reset
how to read this tab
guitar tuner
edit
Autoscroll
slow
fast
+/-
esc
set tempo
stop
 [Intro]

(Guitar 1)
e|---------------------------------|------------------------------------------| \
B|---------------------------------|------------------------------------------|  \
G|-7------7------7--5--------------|---------------------2--------------------|   \
D|---------------------7---7-------|-5--3--5----5-----5-----5--3--0---0-------|    \
A|---------------------------------|------------------------------------------|     \
D|---------------------------------|------------------------------------------|      \
(Guitar 2)                                                                            (2x)
e|---------------------------------|------------------------------------------|      /
B|---------------------------------|------------------------------------------|     /
G|---------------------------------|------------------------------------------|    /
D|---------------------------------|------------------------------------------|   /
A|-5------5------5--3--0---0-------|---------------------0--------------------|  /
D|---------------------------------|-5--3--5----5-----5-----5--3--0---0-------| /

(Guitar 1)
e|---------------------------------|------------------------------------------| \
B|---------------------------------|------------------------------------------|  \
G|-7------7------7--5--------------|---------------------2--------------------|   \
D|---------------------7---7-------|-5--3--5----5-----5-----5--3--0---0-------|    \
A|---------------------------------|------------------------------------------|     \
D|---------------------------------|------------------------------------------|      \
(Guitar 2)                                                                            (2x)
e|---------------------------------|------------------------------------------|      /
B|---------------------------------|------------------------------------------|     /
G|-11-----11-----11-9--------------|---------------------9--------------------|    /
D|--------------------12---12------|-12-10-12---12----12----12-10-------------|   /
A|---------------------------------|------------------------------12--12------|  /
D|---------------------------------|------------------------------------------| /

e|------------------------------------------|
B|------------------------------------------|
G|------------------------------------------|
D|-----------8--8--8--8--7----7\------------|
A|-----------6--6--6--6--5----5\------------|
D|------------------------------------------|

 [Verse]

e|---------------------------------|---------------------------------|
B|---------------------------------|---------------------------------|
G|---------------------------------|---------------------------------|
D|-7--7--7--7--5----5\-------------|-8--8--8--8--7----7\-------------|
A|-5--5--5--5--3----3\-------------|-6--6--6--6--5----5\-------------|
D|---------------------------------|---------------------------------|

e|---------------------------------|---------------------------------|
B|---------------------------------|---------------------------------|
G|---------------------------------|---------------------------------|
D|-7--7--7--7--5----5\---------5\--|--------8--8--8--8--7----7\------|
A|-5--5--5--5--3----3\---3--5--3\--|--5--5--6--6--6--6--5----5\------|
D|---------------------------------|---------------------------------|
                                      PM--|

e|---------------------------------|---------------------------------|
B|---------------------------------|---------------------------------|
G|---------------------------------|---------------------------------|
D|-7--7--7--7--5----5\-------------|-8--8--8--8--7----7\-------------|
A|-5--5--5--5--3----3\-------------|-6--6--6--6--5----5\-------------|
D|---------------------------------|---------------------------------|

e|---------------------------------|-----------------|
B|---------------------------------|-----------------|
G|---------------------------------|-----------------|
D|-7--7--7--7--5----5\---------5\--|-----------------|
A|-5--5--5--5--3----3\---3--5--3\--|--5--5-----------|
D|---------------------------------|--------6--5--6--|
                                      PM--|

 [Chorus]

(Guitar 1)
e|---------------------------------|---------------------------------|
B|---------------------------------|---------------------------------|
G|--7------7------7----------------|-------------------7----7--------|
D|--7------7------7--7----7--------|--5------5------5--7----7--------|
A|--5------5------5--7----7--------|--5------5------5--5----5--------|
D|-------------------7----7--------|--5------5------5----------------|

(Guitar 2)
e|---------------------------------|---------------------------------|
B|---------------------------------|---------------------------------|
G|--7--5------7--5-----------------|--10-9-7---10-9-7----------------|
D|--------7---------7--------------|---------------------------------|
A|---------------------------------|---------------------------------|
D|---------------------------------|---------------------------------|

(Guitar 1)
e|---------------------------------|---------------------------------|
B|---------------------------------|---------------------------------|
G|--7------7------7----------------|-------------------7----7--------|
D|--7------7------7--7----7--------|--5------5------5--7----7--------|
A|--5------5------5--7----7--------|--5------5------5--5----5--------|
D|-------------------7----7--------|--5------5------5----------------|
(Guitar 2)
e|---------------------------------|---------------------------------|
B|---------------------------------|---------------------------------|
G|--10-9--7---10-9--7--------------|--14-12-10--14-12-10-------------|
D|---------------------------------|---------------------------------|
A|---------------------------------|---------------------------------|
D|---------------------------------|---------------------------------|

(Guitar 1)
e|---------------------------------|---------------------------------| -----\ 
B|---------------------------------|---------------------------------|       \
G|--7------7------7----------------|-------------------7----7--------|        \
D|--7------7------7--7----7--------|--5------5------5--7----7--------|         \
A|--5------5------5--7----7--------|--5------5------5--5----5--------|          \
D|-------------------7----7--------|--5------5------5----------------|           \
(Guitar 2)                                                                        \
e|---------------------------------|------------------------------------------|    \ (2x)
B|---------------------------------|------------------------------------------|    /
G|---------------------------------|------------------------------------------|   /
D|---------------------------------|------------------------------------------|  /
A|-5------5------5--3--0---0-------|---------------------0--------------------| /
D|---------------------------------|-5--3--5----5-----5-----5--3--0---0-------|/

e|---------------------------------|------------------------------------------|
B|---------------------------------|------------------------------------------|
G|--7------------------------------|------------------------------------------|
D|-------------7-----------5-------|--3-------0-----8--8--8--8--8---7\--------|
A|---------------------------------|----------------6--6--6--6--5---5\--------|
D|---------------------------------|------------------------------------------|

 [Verse]

e|---------------------------------|---------------------------------|
B|---------------------------------|---------------------------------|
G|---------------------------------|---------------------------------|
D|-7--7--7--7--5----5\-------------|-8--8--8--8--7----7\-------------|
A|-5--5--5--5--3----3\-------------|-6--6--6--6--5----5\-------------|
D|---------------------------------|---------------------------------|

e|---------------------------------|---------------------------------|
B|---------------------------------|---------------------------------|
G|---------------------------------|---------------------------------|
D|-7--7--7--7--5----5\---------5\--|--------8--8--8--8--7----7\------|
A|-5--5--5--5--3----3\---3--5--3\--|--5--5--6--6--6--6--5----5\------|
D|---------------------------------|---------------------------------|
                                      PM--|

(Guitar 1)
e|---------------------------------|---------------------------------|
B|---------------------------------|---------------------------------|
G|---------------------------------|---------------------------------|
D|-------------7--7--7--7--5----5\-|-------------8--8--8--8--7----7\-|
A|-------------5--5--5--5--3----3\-|-------------6--6--6--6--5----5\-|
D|---------------------------------|---------------------------------|

(Guitar 2)
e|---------------------------------|---------------------------------|
B|---------------------------------|---------------------------------|
G|--10-9--7---10-9--7--------------|--14-12-10--14-12-10-------------|
D|---------------------------------|---------------------------------|
A|---------------------------------|---------------------------------|
D|---------------------------------|---------------------------------|

e|---------------------------------|
B|---------------------------------|
G|--10-9-7---10-9--7---------------|
D|---------------------------------|
A|---------------------------------|
D|---------------------------------|

 [Chorus]

(Guitar 1)
e|---------------------------------|---------------------------------| -----\ 
B|---------------------------------|---------------------------------|       \
G|--7------7------7----------------|-------------------7----7--------|        \
D|--7------7------7--7----7--------|--5------5------5--7----7--------|         \
A|--5------5------5--7----7--------|--5------5------5--5----5--------|          \
D|-------------------7----7--------|--5------5------5----------------|           \
(Guitar 2)                                                                        \
e|---------------------------------|------------------------------------------|    \ (2x)
B|---------------------------------|------------------------------------------|    /
G|---------------------------------|------------------------------------------|   /
D|---------------------------------|------------------------------------------|  /
A|-5------5------5--3--0---0-------|---------------------0--------------------| /
D|---------------------------------|-5--3--5----5-----5-----5--3--0---0-------|/

e|---------------------------------|------------------|
B|---------------------------------|------------------|
G|--7------------------------------|------------------|
D|-------------7-----------5-------|--3-------0-------|
A|---------------------------------|------------------|
D|---------------------------------|------------------| (2x)

e|---------------------------------|------------------------------------------|
B|---------------------------------|------------------------------------------|
G|---------------------------------|------------------------------------------|
D|--8--8--8--8--8--8--7\-----------|-----------------------8--7\--------------|
A|--6--6--6--6--6--6--5\-----------|-----------------------6--5\--------------|
D|---------------------------------|------------------------------------------|

[Solo]
e|-----------------------------------------------------------------------------------------|
B|-----------------------------------------------------------------------------------------|
G|-----7-8-10---7-8--10br,br,br------8-10-12-10---9v---7\---*20----*14--*12---*7-8-7---7-8-|
D|--10-------------------------------------------------------------------------------------|
A|-----------------------------------------------------------------------------------------|
D|-----------------------------------------------------------------------------------------|

e|-----------------------------------------------------------------------------------------|
B|-----------------------------------------------------------------------------------------|
G|--10b-10pb-10pb-10pb-10pbr----8-10-12-10---9v---7\---*16-*16-----------------------------|
D|---------------------------------------------------------------*15-*15----*13---*12-*12--|
A|-----------------------------------------------------------------------------------------|
D|-----------------------------------------------------------------------------------------|

(Guitar 1)
e|----------------------------------|------------------------------|\
B|----------------------------------|------------------------------| \
G|-5---7-7----------5-7---7---------|-5---7-7-----9-8-7-5----------|  \
D|-------------7-7--------------7-7-|---------------------7-7\-----|   \
A|----------------------------------|------------------------------|    \
D|----------------------------------|------------------------------|     \
               PM-|            PM-|                                       \
(Guitar 2)                                                                 (2x)
e|----------------------------------|------------------------------|     /
B|----------------------------------|------------------------------|    /
G|-9--11-11----------9-11--11-------|-9--11-11---13-12-11-9--------|   /
D|------------12-12-----------12-12-|-----------------------12-12\-|  /
A|----------------------------------|------------------------------| /
D|----------------------------------|------------------------------|/
              PM--|           PM--|

 [Chorus]

(Guitar 1)
e|---------------------------------|---------------------------------|\
B|---------------------------------|---------------------------------| \
G|--7------7------7----------------|-------------------7----7--------|  \
D|--7------7------7--7----7--------|--5------5------5--7----7--------|   \
A|--5------5------5--7----7--------|--5------5------5--5----5--------|    \
D|-------------------7----7--------|--5------5------5----------------|     \
(Guitar 2)                                                                 (2x)
e|---------------------------------|---------------------------------|     /
B|---------------------------------|---------------------------------|    /
G|--10-9--7---10-9--7--------------|--14-12-10--14-12-10-------------|   /
D|---------------------------------|---------------------------------|  /
A|---------------------------------|---------------------------------| /
D|---------------------------------|---------------------------------|/

(Guitar 1)
e|---------------------------------|---------------------------------| -----\ 
B|---------------------------------|---------------------------------|       \
G|--7------7------7----------------|-------------------7----7--------|        \
D|--7------7------7--7----7--------|--5------5------5--7----7--------|         \
A|--5------5------5--7----7--------|--5------5------5--5----5--------|          \
D|-------------------7----7--------|--5------5------5----------------|           \
(Guitar 2)                                                                        \
e|---------------------------------|------------------------------------------|    \ (4x)
B|---------------------------------|------------------------------------------|    /
G|---------------------------------|------------------------------------------|   /
D|---------------------------------|------------------------------------------|  /
A|-5------5------5--3--0---0-------|---------------------0--------------------| /
D|---------------------------------|-5--3--5----5-----5-----5--3--0---0-------|/


************************************

| *   Harmonic
| b   Bend
| br  Bend release
| pb  Pre-bend
| pbr Pre-bend release
| \   Slide down
| v   Vibrato
| PM  Palm mute

************************************

            
            
Suggest correction
Creating personal tab
Creating personal tab
You can edit any tab online and save it as your Personal.

You can edit, replace or remove any tab part or add personal notes – all changes will be seen only by you.

Personal tabs can be accessed anytime from any device, even offline.
Learn more »
Give kudos to tab author, rate the tab!
1 2 3 4 5
comments
print report bad tab
guest
You may want to rate the tab now too:
select rating
Wanna post a correction for this tab? Suggest correction