Oops, an error
Loading. Please wait.

Heres To Us Bass Tab

version 1
version 1

Whole song

Interactive

5,179 views 15 this week
2 commentsread comments
1 2 3 4 5
1 last vote to show rating
add to favorites
launch autoscroll
font size
0
reset
guitar tuner
Autoscroll
slow
fast
+/-
esc
set tempo
stop
Help us to improve Ultimate-Guitar.com Take our survey!
×
Author
Difficulty
novice
Okay, So Like Most Halestorm, This Song Is In Drop D.

This One Can Be Played In Standard Though.

So I've Done Both ^^

===============================================================
Here's To Us (Standard)
===============================================================

Verse - 0:23
G|-------------|
D|-------------|
A|-7/12\-\-\-\-|
E|-------------|

G|---------------------------------------|
D|---------------------------------------|
A|-3-3-3-3-------------0-0-0-0-----------|
E|-----------1-1-1-1-------------3-3-3-3-|x2

Chorus
G|---------------------------------------|
D|---------------------------------------|
A|-3-3-3-3-------------0-0-0-0-----------|
E|-----------3-3-3-3-------------1-1-1-1-|x4

Verse
G|---------------------------------------|
D|---------------------------------------|
A|-3-3-3-3-------------0-0-0-0-----------|
E|-----------1-1-1-1-------------3-3-3-3-|x4

Chorus
G|---------------------------------------|
D|---------------------------------------|
A|-3-3-3-3-------------0-0-0-0-----------|
E|-----------3-3-3-3-------------1-1-1-1-|x4

Bridge
G|---------------------------------------|
D|---------------------------------------|
A|-5-5-5-5-------------3-3-3-3-----------|
E|-----------1-1-1-1-------------3-3-3-3-|x2

Final Chorus
G|---------------------------------------|
D|---------------------------------------|
A|-3-3-3-3-------------0-0-0-0-----------|
E|-----------3-3-3-3-------------1-1-1-1-|x5

G|---------------------------------------|
D|---------------------------------------|
A|-3-3-3-3-------------0x----------12\-\-|
E|-----------3-3-3-3---------------------|x1

G|---------------------------------------|
D|---------------------------------------|
A|-3-3-3-3-------------0-0-0-0-----------|
E|-----------3-3-3-3-------------1-1-1-1-|x2

G|---------------------------------------|
D|---------------------------------------|
A|-3-3-3-3-------------0-0-0-0-----------|
E|-----------3-3-3-3-------------1-1-----|x1


===============================================================
Here's To Us (Drop D)
===============================================================

Verse - 0:23
G|-------------|
D|-------------|
A|-7/12\-\-\-\-|
D|-------------|

G|---------------------------------------|
D|---------------------------------------|
A|-3-3-3-3-------------0-0-0-0-----------|
D|-----------3-3-3-3-------------5-5-5-5-|x2

Chorus
G|---------------------------------------|
D|---------------------------------------|
A|-3-3-3-3-------------0-0-0-0-----------|
D|-----------5-5-5-5-------------3-3-3-3-|x4

Verse
G|---------------------------------------|
D|---------------------------------------|
A|-3-3-3-3-------------0-0-0-0-----------|
D|-----------3-3-3-3-------------5-5-5-5-|x4

Chorus
G|---------------------------------------|
D|---------------------------------------|
A|-3-3-3-3-------------0-0-0-0-----------|
D|-----------5-5-5-5-------------3-3-3-3-|x4

Bridge
G|---------------------------------------|
D|---------------------------------------|
A|-5-5-5-5-------------3-3-3-3-----------|
D|-----------3-3-3-3-------------5-5-5-5-|x2

Final Chorus
G|---------------------------------------|
D|---------------------------------------|
A|-3-3-3-3-------------0-0-0-0-----------|
D|-----------5-5-5-5-------------3-3-3-3-|x5

G|---------------------------------------|
D|---------------------------------------|
A|-3-3-3-3-------------0x----------12\-\-|
D|-----------5-5-5-5---------------------|x1

G|---------------------------------------|
D|---------------------------------------|
A|-3-3-3-3-------------0-0-0-0-----------|
D|-----------5-5-5-5-------------3-3-3-3-|x2

G|---------------------------------------|
D|---------------------------------------|
A|-3-3-3-3-------------0-0-0-0-----------|
D|-----------5-5-5-5-------------3-3-----|x1

===============================================================
~ Jack Mills
===============================================================
Suggest correction
Give kudos to tab author, rate the tab!
1 2 3 4 5
comments
print report bad tab
2 comments total.
0 reply
scottguman 10 Mar 27, 2014 08:09 AM

What exactly is the point of doing this in Drop D? It never goes below an F.....

0 reply
scottguman 10 Mar 27, 2014 08:09 AM

What exactly is the point of doing this in Drop D? It never goes below an F.....

guest
You may want to rate the tab now too:
select rating
Wanna post a correction for this tab? Suggest correction