Oops, an error
Loading. Please wait.

Heres To Us Tab

version 1
version 1

Whole song

Interactive

25,350 views 72 this week
3 commentsread comments
1 2 3 4 5
excellent!
x 27
add to favorites
launch autoscroll
font size
0
reset
how to read this tab
guitar tuner
Tab Pro tools
  • play this tab
  • loop segment
  • change instrument
  • show fretboard
  • metronome
×
Best way to learn
"Heres To Us"
Autoscroll
slow
fast
+/-
esc
set tempo
stop
Contributor
Difficulty
intermediate
Title: Here's to us
Artist: Halestorm
Tabbed By: Chris (Swift Freeze)


This is my first tab and I decided to do it because the arpeggio for the verse had not been done.

Hopefully it is mostly correct, I did it by ear so there may be some small errors.

The strumming pattern for the chorus you will have to listen to to get it totaly right.

Please enjoy this great song by Halestorm.


Intro
Guitar

|---------------------------3--------|
|-----1-------1-------1---3---3------|
|-----------0---0-------0-------0----| x2
|---2---2-3---------2----------------|
|-3---------------0------------------|
|------------------------------------|

Verse
Guitar 

|---------------------------3--------|
|-----1-------1-------1---3---3------|
|-----------0---0-------0-------0----| x4
|---2---2-3---------2----------------|
|-3---------------0------------------|
|------------------------------------|


Verse Alternate
Guitar

|---------------------------3--------|
|-----1-------1-------1-------3------|
|--------0--0---0-----2-0-0-----0----| x3
|---2---2-3----3----2--2--0----------|
|-3---------------0-------2----------|
|-------------------------3----------|

|-------------------------3-3-3-3----|
|-----1-------1-------1---3-3-3-3----|
|--------0--0---0-----2-0-0-0-0-0----| x1
|---2---2-3----3----2--2--0-0-0-0----| 
|-3---------------0-------2-2-2-2----|
|-------------------------3-3-3-3----|

Chorus
Guitar

|-0--0-xx-3--3-xx-0--0-xx-1----------|
|-1—-1-xx-3--3-xx-1--1-xx-1----------|
|-0--0-xx-0--0-xx-2--2-xx-2----------|
|-2--2-xx-0--0-xx-2--2-xx-3----------|
|-3--3-xx-2--3-xx------xx-3----3h5p3-|
|-x--x-xx-3--3-xx------xx-1-3h5------|

|-0--0-xx-3--3-xx-0--0-xx-1----------|
|-1—-1-xx-3--3-xx-1--1-xx-1----------|
|-0--0-xx-0--0-xx-2--2-xx-2----------|
|-2--2-xx-0--0-xx-2--2-xx-3-3p20-----|
|-3--3-xx-2--3-xx------xx-3-----0h3--|
|-x--x-xx-3--3-xx------xx-1----------|

|-0--0-xx-3--3-xx-0--0-xx-1----------|
|-1—-1-xx-3--3-xx-1--1-xx-1----------|
|-0--0-xx-0--0-xx-2--2-xx-2----------|
|-2--2-xx-0--0-xx-2--2-xx-3----------|
|-3--3-xx-2--3-xx------xx-3----3h5p3-|
|-x--x-xx-3--3-xx------xx-1-3h5------|

|-0--0-0x-3-3-3xx-0-0-0xx-1-1-1------|
|-1—-1-1x-3-3-3xx-1-1-1xx-1-1-1------|
|-0--0-0x-0-0-0xx-2-2-2xx-2-2-2------|
|-2--2-2x-0-0-0xx-2-2-2xx-3-3-3------|
|-3--3-3x-2-2-2xx------xx-3-3-3------|
|-x--x-xx-3-3-3xx------xx-1-1-1------|

Bridge
Guitar

|-2—-2--2--1--1--1--0--0--0--3--3--3-|
|-3--3--3--1--1--1--1--1--1--3--3--3-|
|-2--2--2--2--2--2--0--0--0--0--0--0-|
|-0--0--0--3--3--3--2--2--2--0--0--0-|
|----------3--3--3--3--3--3--2--2--2-|
|----------1--1--1--------3--3--3--3-|

|-1--1--1--1--1--1--1--1-------------|
|-1--1--1--1--1--1--1--1-------------|
|-2--2--2--2--2--2--2--2-------------|
|-3--3--3--3--3--3--3--3-------------|
|-1--3--3--3--3--3--3--3-------------|
|-1--1--1--1--1--1--1--1-------------|

|-3--3--3--3--3--3--3--3-------------|
|-3--3--3--3--3--3--3--3-------------|
|-0--0--0--0--0--0--0--0-------------|
|-0--0--0--0--0--0--0--0-------------|
|-2--2--2--2--2--2--2--2-------------|
|-3--3--3--3--3--3--3--3-------------|
comments
print report bad tab
3 comments total.
+1 reply
callumslocombe wrote on July 30 2012, 12:29 pm

The last note of the intro and verse should be an open G, rather than C

0 reply
DanielChaves0 wrote on May 18 2013, 11:24 am

The last note of the intro and verse should be an open G.(2)

0 reply
Swift Freeze wrote on June 17 2015, 12:30 pm

Thank you for the correction, if I could work out how to change it I would, but hopefully people will read your comments :).

I want to post or [tab]
guest
You may want to rate the tab now too:
select rating
Please do not post tabs as comments. Select "correction" instead!