Oops, an error
Loading. Please wait.

I Am The Fire Tab

version 2
version 2

Whole song

  • Intro/Verse/Chorus - if you have corrections comment i will change :).
160 views 15 this week
no commentswrite comment
1 2 3 4 5
3 more votes to show rating
add to favorites
launch autoscroll
font size
0
reset
how to read this tab
guitar tuner
Autoscroll
slow
fast
+/-
esc
set tempo
stop
Help us to improve Ultimate-Guitar.com Take our survey!
×
Author
Difficulty
Tuning
novice
D A D G B E
About this tab version
Intro/Verse/Chorus - if you have corrections comment i will change :). Was this info helpful? Yes No
Intro/Verse/Chorus - if you have corrections comment i will change :)

E|----------------------|----------------------|----------------------|----------------------|
B|----------------------|--------3-------------|----------------------|----------------------|
G|-----5--7-------------|-----5----------------|-----2--4-------------|-----4--5-------------|
D|--7-------------------|--4-------------------|--3-------------------|--5-------------------|
A|----------------------|----------------------|----------------------|----------------------|
D|----------------------|----------------------|----------------------|----------------------|  4x


E|----------------------|----------------------|
B|----------------------|----------------------|
G|----------------------|----------------------|
D|--7-------------------|--5-------------------|
A|--7-------------------|--5-------------------|
D|--7-------------------|--5-------------------|


E|-------------------------|-------------------------|-------------------------|
B|-------------------------|-------------------------|-------------------------|
G|-------------------------|-------------------------|-------------------------|
D|-3-3-3-3-3-3-3-3-3-3-3-3-|-5-5-5-5-5-5-7-7-7-9-9-9-|-7-7-7-7-7-7-7-7-7-7-7-7-|
A|-3-3-3-3-3-3-3-3-3-3-3-3-|-5-5-5-5-5-5-7-7-7-9-9-9-|-7-7-7-7-7-7-7-7-7-7-7-7-|
D|-3-3-3-3-3-3-3-3-3-3-3-3-|-5-5-5-5-5-5-7-7-7-9-9-9-|-7-7-7-7-7-7-7-7-7-7-7-7-|


E|-------------------------|-------------------------|
B|-------------------------|-------------------------|
G|-------------------------|-------------5-----------|
D|-5-5-5-5-5-5-5-5-5-5-5-5-|-3-3-3-3-3-3-5-----5-----|
A|-5-5-5-5-5-5-5-5-5-5-5-5-|-3-3-3-3-3-3-3-----5-----|
D|-5-5-5-5-5-5-5-5-5-5-5-5-|-3-3-3-3-3-3-------5-----|


E|----------------------------------|
B|----------------------------------|
G|----------------------------------|
D|-5-7----5-7----5-7----5-7----9--9-|
A|-5-7----5-7----5-7----5-7----9--9-|
D|-5-7----5-7----5-7----5-7----9--9-|  2x
Suggest correction
Give kudos to tab author, rate the tab!
1 2 3 4 5
comments
print report bad tab
guest
You may want to rate the tab now too:
select rating
Wanna post a correction for this tab? Suggest correction