Oops, an error
Loading. Please wait.

I Am The Fire tab

version 2
version 2

Whole song

Interactive

1,048 views 63 this week
no commentswrite comment
1 2 3 4 5
x 4
add to favorites
×
Save as Personal and add changes to this tab that will be seen only by you. Learn more ›
×
You can save this tab as Personal to edit and correct it or add notes. All changes will be seen only by you. Learn more »
launch autoscroll
font size
0
reset
how to read this tab
guitar tuner
edit
Autoscroll
slow
fast
+/-
esc
set tempo
stop
Drop D
Tempo 86

*    Palm mute
pbr  Pre-bend release
b    Bend
~    Vibrato

 Guitar 1 - Joe Hottinger
 Guitar 2 - Lzzy Hale




[Intro/Verse]

   Guitar 1
E|----------------------|----------------------|----------------------|----------------------|
B|-----1--3-------------|--------3-------------|----------------------|-----0--1-------------|
G|--2-------------------|-----5----------------|-----2--4-------------|--0-------------------|
D|----------------------|--4-------------------|--3-------------------|----------------------|
A|----------------------|----------------------|----------------------|----------------------|
D|----------------------|----------------------|----------------------|----------------------|

   Guitar 2
   *   * * *   * * *   * * *   * *   *   * * *   * * *   * * *   * *
E|---------------------------------|---------------------------------|
B|---------------------------------|---------------------------------|
G|---------------------------------|---------------------------------|
D|-------7-------7-------7-------7-|-------4-------4-------4-------4-|
A|-0---0---0---0---0---0---0---0---|-0---0---0---0---0---0---0---0---|
D|---------------------------------|---------------------------------|
    
   *   * * *   * * *   * * *   * *   *   * * *   * * *   * * *   * * 
E|---------------------------------|---------------------------------|
B|---------------------------------|---------------------------------|
G|---------------------------------|---------------------------------|
D|-------3-------3-------3-------3-|-------5-------5-------5-------5-|
A|-0---0---0---0---0---0---0---0---|-0---0---0---0---0---0---0---0---|
D|---------------------------------|---------------------------------|




[Chorus]

   Guitar 1
E|----------------------|----------------------|
B|----------------------|----------------------|
G|--5-------------------|--5-------------------|
D|--7-------------------|--4-------------------|
A|--7-------------------|--3-------------------|
D|--7-------------------|--4-------------------|

E|-----------------------------|-----------------------------|-----------------------------|
B|-----------------------------|-----------------------------|-----------------------------|
G|-2-2-2---2-----2-2-2---2-----|-4-4-4---4-----4-4-4---4-----|-5-5-5---5-----5-5-5---5-----|
D|-3-3-3---3-----3-3-3---3-----|-5-5-5---5-----5-5-5---5-----|-7-7-7---7-----7-7-7---7-----|
A|-3-3-3---3-----3-3-3---3-----|-5-5-5---5-----5-5-5---5-----|-7-7-7---7-----7-7-7---7-----|
D|-3-3-3---3-----3-3-3---3-----|-5-5-5---5-----5-5-5---5-----|-7-7-7---7-----7-7-7---7-----|

E|-------------------------------|-------------------------|
B|-------------------------------|-------------------------|
G|-5-5-5---5-5-5---5-5-5---5-----|-2--2--2--2--5-----------|
D|-4-4-4---x-x-x---4-4-4---4-----|-3--3--3--3--5-----5-----|
A|-3-3-3---3-3-3---3-3-3---3-----|-3--3--3--3--3-----5-----|
D|-4-4-4-----------4-4-4---4-----|-3--3--3--3--------5-----|


   Guitar 2
E|----------------------|----------------------|
B|----------------------|----------------------|
G|----------------------|----------------------|
D|--7-------------------|----------------------|
A|--7-------------------|--3-------------------|
D|--7-------------------|--4-------------------|

E|--------------------------|---------------------------------------------|---------------------------|
B|--------------------------|---------------------------------------------|---------------------------|
G|--------------------------|-12-12-12---14-14-14---16-16-16---17-17-17---|---------------------------|
D|-3-3-3---3-----3--3--3--3-|--x--x--x----x--x--x----x--x--x----x--x--x---|-7-7-7---7-----7--7--7--7--|
A|-3-3-3---3-----3--3--3--3-|-10-10-10---12-12-12---14-14-14---15-15-15---|-7-7-7---7-----7--7--7--7--|
D|-3-3-3---3-----3--3--3--3-|---------------------------------------------|-7-7-7---7-----7--7--7--7--|

E|-------------------------|-------------------------|
B|-------------------------|-------------------------|
G|-------------------------|-------------5-----------|
D|-------------------------|-3--3--3--3--5-----5-----|
A|-3--3--3--3--3--3--3--3--|-3--3--3--3--3-----5-----|
D|-4--4--4--4--4--4--4--4--|-3--3--3--3--------5-----|


  Both Guitars
E|----------------------------------|
B|----------------------------------|
G|----------------------------------|
D|-5-7----5-7----5-7----5-7-5-10-10-|
A|-5-7----5-7----5-7----5-7-5-10-10-|
D|-5-7----5-7----5-7----5-7-5-10-10-|




[Break]

   Guitar 1
E|--------------------------------|--------------------------------|
B|--------------------------------|--------------------------------|
G|-7pbr-------------------11b-11b-|-11b-11b-11v--------------------|
D|--------------------------------|--------------------------------|
A|--------------------------------|--------------------------------|
D|--------------------------------|--------------------------------|

E|--------------------------------|--------------------------------|
B|--------------------------------|--------------------------------|
G|-7pbr--7pbr-------------11b-11b-|-11b-11b-11v--------------------|
D|--------------------------------|--------------------------------|
A|--------------------------------|--------------------------------|
D|--------------------------------|--------------------------------|

   Guitar 2
   * * * * * * * * * * * * * * * *   * * * * * * * * * * * * * * * *
E|---------------------------------|---------------------------------|
B|---------------------------------|---------------------------------|
G|---------------------------------|---------------------------------|
D|---7---7---7---7---7---7---7---7-|---4---4---4---4---4---4---4---4-|
A|-0---0---0---0---0---0---0---0---|-0---0---0---0---0---0---0---0---|
D|---------------------------------|---------------------------------|
    
   * * * * * * * * * * * * * * * *   * * * * * * * * * * * * * * * *   
E|---------------------------------|---------------------------------|
B|---------------------------------|---------------------------------|
G|---------------------------------|---------------------------------|
D|---3---3---3---3---3---3---3---3-|---5---5---5---5---5---5---5---5-|
A|-0---0---0---0---0---0---0---0---|-0---0---0---0---0---0---0---0---|
D|---------------------------------|---------------------------------|




 [Verse]

   Guitar 1
E|----------------------|----------------------|----------------------|----------------------|
B|-----1--3-------------|--------3-------------|----------------------|-----0--1-------------|
G|--2-------------------|-----5----------------|-----2--4-------------|--0-------------------|
D|----------------------|--4-------------------|--3-------------------|----------------------|
A|----------------------|----------------------|----------------------|----------------------|
D|----------------------|----------------------|----------------------|----------------------|

   Both Guitars
   * * * * * * * * * * * * * * * *   * * * * * * * * * * * * * * * *
E|---------------------------------|---------------------------------|
B|---------------------------------|---------------------------------|
G|---------------------------------|---------------------------------|
D|---7---7---7---7---7---7---7---7-|---4---4---4---4---4---4---4---4-|
A|-0---0---0---0---0---0---0---0---|-0---0---0---0---0---0---0---0---|
D|---------------------------------|---------------------------------|
    
   * * * * * * * * * * * * * * * *   * * * * * * * * * *   
E|---------------------------------|---------------------------------|
B|---------------------------------|---------------------------------|
G|---------------------------------|---------------------------------|
D|---3---3---3---3---3---3---3---3-|---5---5---5---5---5-------------|
A|-0---0---0---0---0---0---0---0---|-0---0---0---0---0---------------|
D|---------------------------------|---------------------------------|

   Guitar 1
E|----------------------------------|
B|----------------------------------|
G|-------------------12-12-12-5-5-5-|
D|--------------------x--x--x-x-x-x-|
A|-------------------10-10-10-3-3-3-|
D|----------------------------------|

   Guitar 2
E|-------------------------------------|
B|-------------------------------------|
G|-------------------12-12-12----------|
D|--------------------x--x--x-10-10-10-|
A|-------------------10-10-10-10-10-10-|
D|----------------------------10-10-10-|




[Chorus]

  Guitar 1
E|-----------------------------|-----------------------------|
B|-----------------------------|-----------------------------|
G|-5-5-5---5-----5-5-5---5-----|-5-5-5---5-----5-5-5---5-----|
D|-7-7-7---7-----7-7-7---7-----|-4-4-4---4-----4-4-4---4-----|
A|-7-7-7---7-----7-7-7---7-----|-3-3-3---3-----3-3-3---3-----|
D|-7-7-7---7-----7-7-7---7-----|-4-4-4---4-----4-4-4---4-----|

E|-----------------------------|-----------------------------|-----------------------------|
B|-----------------------------|-----------------------------|-----------------------------|
G|-2-2-2---2-----2-2-2---2-----|-4-4-4---4-----4-4-4---4-----|-5-5-5---5-----5-5-5---5-----|
D|-3-3-3---3-----3-3-3---3-----|-5-5-5---5-----5-5-5---5-----|-7-7-7---7-----7-7-7---7-----|
A|-3-3-3---3-----3-3-3---3-----|-5-5-5---5-----5-5-5---5-----|-7-7-7---7-----7-7-7---7-----|
D|-3-3-3---3-----3-3-3---3-----|-5-5-5---5-----5-5-5---5-----|-7-7-7---7-----7-7-7---7-----|

E|-------------------------------|-------------------------|
B|-------------------------------|-------------------------|
G|-5-5-5---5-5-5---5-5-5---5-----|-2--2--2--2--4-----------|
D|-4-4-4---x-x-x---4-4-4---4-----|-3--3--3--3--5-----------|
A|-3-3-3---3-3-3---3-3-3---3-----|-3--3--3--3--5-----------|
D|-4-4-4-----------4-4-4---4-----|-3--3--3--3--5-----------|

  Guitar 2
E|---------------------------|-------------------------|
B|---------------------------|-------------------------|
G|---------------------------|-------------------------|
D|-7-7-7---7-----7--7--7--7--|-------------------------|
A|-7-7-7---7-----7--7--7--7--|-3--3--3--3--3--3--3--3--|
D|-7-7-7---7-----7--7--7--7--|-4--4--4--4--4--4--4--4--|

E|--------------------------|---------------------------------------------|---------------------------|
B|--------------------------|---------------------------------------------|---------------------------|
G|--------------------------|-12-12-12---14-14-14---16-16-16---17-17-17---|---------------------------|
D|-3-3-3---3-----3--3--3--3-|--x--x--x----x--x--x----x--x--x----x--x--x---|-7-7-7---7-----7--7--7--7--|
A|-3-3-3---3-----3--3--3--3-|-10-10-10---12-12-12---14-14-14---15-15-15---|-7-7-7---7-----7--7--7--7--|
D|-3-3-3---3-----3--3--3--3-|---------------------------------------------|-7-7-7---7-----7--7--7--7--|

E|-------------------------|-------------------------|
B|-------------------------|-------------------------|
G|-------------------------|-------------------------|
D|-------------------------|-3--3--3--3--5-----------|
A|-5--5--5--5--5--5--5--5--|-3--3--3--3--5-----------|
D|-4--4--4--4--4--4--4--4--|-3--3--3--3--5-----------|

  Guitar 1
E|----------------------------------|------------------------------------|
B|-8---8b---------------------------|------------------------------------|
G|-7--------------------------------|-----7--7---------7br--5------------|
D|----------------------------------|-------------------------7-5--------|
D|----------------------------------|-----------------------------7-5-3--|
D|----------------------------------|------------------------------------|
  Guitar 2
E|----------------------------------|-------------------------------------|
B|----------------------------------|-------------------------------------|
G|----------------------------------|-------------------------------------|
D|-5-7----5-7----5-7----5-7-5-10-10-|-10-10---10-10---10-10---9-9---5-7-5-|
A|-5-7----5-7----5-7----5-7-5-10-10-|-10-10---10-10---10-10---9-9---------|
D|-5-7----5-7----5-7----5-7-5-10-10-|-------------------------------------|




[Verse]

  Both Guitars
E|-------------------------------------|
B|-------------------------------------|
G|-------------------------------------|
D|-10-10---10-10---10-10---9-9---5-7-5-|
A|-10-10---10-10---10-10---9-9---------|
D|-------------------------------------|




[Chorus]

  Guitar 1
E|-----------------------------|-----------------------------|
B|-----------------------------|-----------------------------|
G|-5-5-5---5-----5-5-5---5-----|-5-5-5---5-----5-5-5---5-----|
D|-7-7-7---7-----7-7-7---7-----|-4-4-4---4-----4-4-4---4-----|
A|-7-7-7---7-----7-7-7---7-----|-3-3-3---3-----3-3-3---3-----|
D|-7-7-7---7-----7-7-7---7-----|-4-4-4---4-----4-4-4---4-----|

E|-----------------------------|-----------------------------|-----------------------------|
B|-----------------------------|-----------------------------|-----------------------------|
G|-2-2-2---2-----2-2-2---2-----|-4-4-4---4-----4-4-4---4-----|-5-5-5---5-----5-5-5---5-----|
D|-3-3-3---3-----3-3-3---3-----|-5-5-5---5-----5-5-5---5-----|-7-7-7---7-----7-7-7---7-----|
A|-3-3-3---3-----3-3-3---3-----|-5-5-5---5-----5-5-5---5-----|-7-7-7---7-----7-7-7---7-----|
D|-3-3-3---3-----3-3-3---3-----|-5-5-5---5-----5-5-5---5-----|-7-7-7---7-----7-7-7---7-----|

E|-------------------------------|-------------------------|
B|-------------------------------|-------------------------|
G|-5-5-5---5-5-5---5-5-5---5-----|-2--2--2--2--4--4--4--4--|
D|-4-4-4---x-x-x---4-4-4---4-----|-3--3--3--3--5--5--5--5--|
A|-3-3-3---3-3-3---3-3-3---3-----|-3--3--3--3--5--5--5--5--|
D|-4-4-4-----------4-4-4---4-----|-3--3--3--3--5--5--5--5--|

  Guitar 2
E|---------------------------|-------------------------|
B|---------------------------|-------------------------|
G|---------------------------|-------------------------|
D|-7-7-7---7-----7--7--7--7--|-------------------------|
A|-7-7-7---7-----7--7--7--7--|-3--3--3--3--3--3--3--3--|
D|-7-7-7---7-----7--7--7--7--|-4--4--4--4--4--4--4--4--|

E|--------------------------|---------------------------------------------|---------------------------|
B|--------------------------|---------------------------------------------|---------------------------|
G|--------------------------|-12-12-12---14-14-14---16-16-16---17-17-17---|---------------------------|
D|-3-3-3---3-----3--3--3--3-|--x--x--x----x--x--x----x--x--x----x--x--x---|-7-7-7---7-----7--7--7--7--|
A|-3-3-3---3-----3--3--3--3-|-10-10-10---12-12-12---14-14-14---15-15-15---|-7-7-7---7-----7--7--7--7--|
D|-3-3-3---3-----3--3--3--3-|---------------------------------------------|-7-7-7---7-----7--7--7--7--|

E|-------------------------|-------------------------|
B|-------------------------|-------------------------|
G|-------------------------|-------------------------|
D|-------------------------|-3--3--3--3--5--5--5--5--|
A|-5--5--5--5--5--5--5--5--|-3--3--3--3--5--5--5--5--|
D|-4--4--4--4--4--4--4--4--|-3--3--3--3--5--5--5--5--|




[Outro]

  Guitar 1
E|-------------------------|-------------------------|
B|-------------------------|-------------------------|
G|-5--5--5--5--5--5--5--5--|-5--5--5--5--5--5--5--5--|
D|-7--7--7--7--7--7--7--7--|-4--4--4--4--4--4--4--4--|
A|-7--7--7--7--7--7--7--7--|-3--3--3--3--3--3--3--3--|
D|-7--7--7--7--7--7--7--7--|-4--4--4--4--4--4--4--4--|

E|-------------------------|-------------------------|
B|-------------------------|-------------------------|
G|-2--2--2--2--2--2--2--2--|-4--4--4--4--4--4--4--4--|
D|-3--3--3--3--3--3--3--3--|-5--5--5--5--5--5--5--5--|
A|-3--3--3--3--3--3--3--3--|-5--5--5--5--5--5--5--5--|
D|-3--3--3--3--3--3--3--3--|-5--5--5--5--5--5--5--5--|

E|-------------------------|-------------------------|-------------------------|
B|-8---8b------------------|--8-------8-8-5---8b-----|-8---8b------------------|
G|-7------------7b-7b-5----|-------------------------|-7-----------------------|
D|----------------------7--|-------------------------|-------------------------|
A|-------------------------|-------------------------|-------------------------|
D|-------------------------|-------------------------|-------------------------|

  Guitar 2
E|-------------------------|-------------------------|
B|-------------------------|-------------------------|
G|-------------------------|-------------------------|
D|-7--7--7--7--7--7--7--7--|-------------------------|
A|-7--7--7--7--7--7--7--7--|-3--3--3--3--3--3--3--3--|
D|-7--7--7--7--7--7--7--7--|-4--4--4--4--4--4--4--4--|

E|-------------------------|-------------------------|
B|-------------------------|-------------------------|
G|-------------------------|-------------------------|
D|-3--3--3--3--3--3--3--3--|-5--5--5--5--5--5--5--5--|
A|-3--3--3--3--3--3--3--3--|-5--5--5--5--5--5--5--5--|
D|-3--3--3--3--3--3--3--3--|-5--5--5--5--5--5--5--5--|

E|----------------------------------|----------------------------------|----------------------------------|
B|----------------------------------|----------------------------------|----------------------------------|
G|----------------------------------|----------------------------------|----------------------------------|
D|-5-7----5-7----5-7----5-7-5-10-10-|-5-7----5-7----5-7----5-7-5-10-10-|-5-7----5-7----5-7----5-7-5-10-10-|
A|-5-7----5-7----5-7----5-7-5-10-10-|-5-7----5-7----5-7----5-7-5-10-10-|-5-7----5-7----5-7----5-7-5-10-10-|
D|-5-7----5-7----5-7----5-7-5-10-10-|-5-7----5-7----5-7----5-7-5-10-10-|-5-7----5-7----5-7----5-7-5-10-10-|

  Both Guitars
E|-------------------------------------|
B|-------------------------------------|
G|-------------------------------------|
D|-10-10---10-10---10-10---9-9---5-7-5-|
A|-10-10---10-10---10-10---9-9---------|
D|-------------------------------------|

            
            
Suggest correction
Creating personal tab
Creating personal tab
You can edit any tab online and save it as your Personal.

You can edit, replace or remove any tab part or add personal notes – all changes will be seen only by you.

Personal tabs can be accessed anytime from any device, even offline.
Learn more »
comments
print report bad tab
guest
You may want to rate the tab now too:
select rating
Wanna post a correction for this tab? Suggest correction