Oops, an error
Loading. Please wait.

I Am The Fire Tab

version 2
version 2

Whole song

Interactive

376 views 21 this week
no commentswrite comment
1 2 3 4 5
2 more votes to show rating
add to favorites
launch autoscroll
font size
0
reset
how to read this tab
guitar tuner
Autoscroll
slow
fast
+/-
esc
set tempo
stop
Help us to improve Ultimate-Guitar.com Take our survey!
×
Author
Difficulty
Tuning
intermediate
D A D G B E
Drop D
Tempo 86

 * PM (palm mute)
 
 Guitar 1 - Joe Hottinger
 Guitar 2 - Lzzy Hale


[Intro/Verse]

  Guitar 1
E|----------------------|----------------------|----------------------|----------------------|
B|-----1--3-------------|--------3-------------|----------------------|--------1-------------|
G|--2-------------------|-----5----------------|-----2--4-------------|-----4----------------|
D|----------------------|--4-------------------|--3-------------------|--5-------------------|
A|----------------------|----------------------|----------------------|----------------------|
D|----------------------|----------------------|----------------------|----------------------|  4x


  Guitar 2
E|---------------------------------|---------------------------------|
B|---------------------------------|---------------------------------|
G|-*---*---*---*---*---*---*---*---|-*---*---*---*---*---*---*---*---|
D|-7-7-7-7-7-7-7-7-7-7-7-7-7-7-7-7-|-4-4-4-4-4-4-4-4-4-4-4-4-4-4-4-4-|
A|---------------------------------|---------------------------------|
D|---------------------------------|---------------------------------|
                                                                                 4x
E|---------------------------------|---------------------------------|
B|---------------------------------|---------------------------------|
G|-*---*---*---*---*---*---*---*---|-*---*---*---*---*---*---*---*---|
D|-3-3-3-3-3-3-3-3-3-3-3-3-3-3-3-3-|-5-5-5-5-5-5-5-5-5-5-5-5-5-5-5-5-|
A|---------------------------------|---------------------------------|
D|---------------------------------|---------------------------------|



 [Chorus]

  Guitar 1
E|----------------------|----------------------|
B|----------------------|----------------------|
G|--5-------------------|--5-------------------|
D|--7-------------------|--5-------------------|
A|--7-------------------|--4-------------------|
D|--7-------------------|--4-------------------|

E|-----------------------------|-----------------------------|-----------------------------|
B|-----------------------------|-----------------------------|-----------------------------|
G|-2-2-2---2-----2-2-2---2-----|-4-4-4---4-----4-4-4---4-----|-5-5-5---5-----5-5-5---5-----|
D|-3-3-3---3-----3-3-3---3-----|-5-5-5---5-----5-5-5---5-----|-7-7-7---7-----7-7-7---7-----|
A|-3-3-3---3-----3-3-3---3-----|-5-5-5---5-----5-5-5---5-----|-7-7-7---7-----7-7-7---7-----|
D|-3-3-3---3-----3-3-3---3-----|-5-5-5---5-----5-5-5---5-----|-7-7-7---7-----7-7-7---7-----|

E|-------------------------------|-------------------------|
B|-------------------------------|-------------------------|
G|-5-5-5---5-5-5---5-5-5---5-----|-------------5-----------|
D|-5-5-5---x-x-x---5-5-5---5-----|-3--3--3--3--5-----5-----|
A|-4-4-4---3-3-3---4-4-4---4-----|-3--3--3--3--3-----5-----|
D|-4-4-4-----------4-4-4---4-----|-3--3--3--3--------5-----|


  Guitar 2
E|----------------------|----------------------|
B|----------------------|----------------------|
G|----------------------|----------------------|
D|--7-------------------|----------------------|
A|--7-------------------|--5-------------------|
D|--7-------------------|--4-------------------|

E|--------------------------|---------------------------------------------|---------------------------|
B|--------------------------|---------------------------------------------|---------------------------|
G|--------------------------|-12-12-12---14-14-14---16-16-16---17-17-17---|---------------------------|
D|-3-3-3---3-----3--3--3--3-|--x--x--x----x--x--x----x--x--x----x--x--x---|-7-7-7---7-----7--7--7--7--|
A|-3-3-3---3-----3--3--3--3-|-10-10-10---12-12-12---14-14-14---15-15-15---|-7-7-7---7-----7--7--7--7--|
D|-3-3-3---3-----3--3--3--3-|---------------------------------------------|-7-7-7---7-----7--7--7--7--|

E|-------------------------|-------------------------|
B|-------------------------|-------------------------|
G|-------------------------|-------------5-----------|
D|-------------------------|-3--3--3--3--5-----5-----|
A|-5--5--5--5--5--5--5--5--|-3--3--3--3--3-----5-----|
D|-4--4--4--4--4--4--4--4--|-3--3--3--3--------5-----|


 Both Guitars
E|----------------------------------|
B|----------------------------------|
G|----------------------------------|
D|-5-7----5-7----5-7----5-7----9--9-|
A|-5-7----5-7----5-7----5-7----9--9-|
D|-5-7----5-7----5-7----5-7----9--9-|  2x



 [Break]

  Guitar 2
E|---------------------------------|---------------------------------|
B|---------------------------------|---------------------------------|
G|-*---*---*---*---*---*---*---*---|-*---*---*---*---*---*---*---*---|
D|-7-7-7-7-7-7-7-7-7-7-7-7-7-7-7-7-|-4-4-4-4-4-4-4-4-4-4-4-4-4-4-4-4-|
A|---------------------------------|---------------------------------|
D|---------------------------------|---------------------------------|

E|---------------------------------|---------------------------------|
B|---------------------------------|---------------------------------|
G|-*---*---*---*---*---*---*---*---|-*---*---*---*---*---*---*---*---|
D|-3-3-3-3-3-3-3-3-3-3-3-3-3-3-3-3-|-5-5-5-5-5-5-5-5-5-5-5-5-5-5-5-5-|
A|---------------------------------|---------------------------------|
D|---------------------------------|---------------------------------|



 [Verse]

  Guitar 1
E|----------------------|----------------------|----------------------|----------------------|
B|-----1--3-------------|--------3-------------|----------------------|--------1-------------|
G|--2-------------------|-----5----------------|-----2--4-------------|-----4----------------|
D|----------------------|--4-------------------|--3-------------------|--5-------------------|
A|----------------------|----------------------|----------------------|----------------------|
D|----------------------|----------------------|----------------------|----------------------|

  Both Guitars
E|---------------------------------|---------------------------------|
B|---------------------------------|---------------------------------|
G|-*---*---*---*---*---*---*---*---|-*---*---*---*---*---*---*---*---|
D|-7-7-7-7-7-7-7-7-7-7-7-7-7-7-7-7-|-4-4-4-4-4-4-4-4-4-4-4-4-4-4-4-4-|
A|---------------------------------|---------------------------------|
D|---------------------------------|---------------------------------|

E|---------------------------------|---------------------------------|
B|---------------------------------|---------------------------------|
G|-*---*---*---*---*---*---*---*---|-*---*---*---*---*---------------|
D|-3-3-3-3-3-3-3-3-3-3-3-3-3-3-3-3-|-5-5-5-5-5-5-5-5-5-5-------------|
A|---------------------------------|---------------------------------|
D|---------------------------------|---------------------------------|

 Guitar 1
E|----------------------------------|
B|----------------------------------|
G|-------------------12-12-12-5-5-5-|
D|--------------------x--x--x-x-x-x-|
A|-------------------10-10-10-3-3-3-|
D|----------------------------------|

 Guitar 2
E|-------------------------------------|
B|-------------------------------------|
G|-------------------12-12-12----------|
D|--------------------x--x--x-10-10-10-|
A|-------------------10-10-10-10-10-10-|
D|----------------------------10-10-10-|


[Chorus]

  Guitar 1
E|-----------------------------|-----------------------------|
B|-----------------------------|-----------------------------|
G|-5-5-5---5-----5-5-5---5-----|-4-4-4---4-----4-4-4---4-----|
D|-7-7-7---7-----7-7-7---7-----|-5-5-5---5-----5-5-5---5-----|
A|-7-7-7---7-----7-7-7---7-----|-5-5-5---5-----5-5-5---5-----|
D|-7-7-7---7-----7-7-7---7-----|-5-5-5---5-----5-5-5---5-----|

E|-----------------------------|-----------------------------|-----------------------------|
B|-----------------------------|-----------------------------|-----------------------------|
G|-2-2-2---2-----2-2-2---2-----|-4-4-4---4-----4-4-4---4-----|-5-5-5---5-----5-5-5---5-----|
D|-3-3-3---3-----3-3-3---3-----|-5-5-5---5-----5-5-5---5-----|-7-7-7---7-----7-7-7---7-----|
A|-3-3-3---3-----3-3-3---3-----|-5-5-5---5-----5-5-5---5-----|-7-7-7---7-----7-7-7---7-----|
D|-3-3-3---3-----3-3-3---3-----|-5-5-5---5-----5-5-5---5-----|-7-7-7---7-----7-7-7---7-----|

E|-------------------------------|-------------------------|
B|-------------------------------|-------------------------|
G|-5-5-5---5-5-5---5-5-5---5-----|-------------5-----------|
D|-5-5-5---x-x-x---5-5-5---5-----|-3--3--3--3--5-----------|
A|-4-4-4---3-3-3---4-4-4---4-----|-3--3--3--3--3-----------|
D|-4-4-4-----------4-4-4---4-----|-3--3--3--3--------------|

  Guitar 2
E|---------------------------|-------------------------|
B|---------------------------|-------------------------|
G|---------------------------|-------------------------|
D|-7-7-7---7-----7--7--7--7--|-------------------------|
A|-7-7-7---7-----7--7--7--7--|-5--5--5--5--5--5--5--5--|
D|-7-7-7---7-----7--7--7--7--|-4--4--4--4--4--4--4--4--|

E|--------------------------|---------------------------------------------|---------------------------|
B|--------------------------|---------------------------------------------|---------------------------|
G|--------------------------|-12-12-12---14-14-14---16-16-16---17-17-17---|---------------------------|
D|-3-3-3---3-----3--3--3--3-|--x--x--x----x--x--x----x--x--x----x--x--x---|-7-7-7---7-----7--7--7--7--|
A|-3-3-3---3-----3--3--3--3-|-10-10-10---12-12-12---14-14-14---15-15-15---|-7-7-7---7-----7--7--7--7--|
D|-3-3-3---3-----3--3--3--3-|---------------------------------------------|-7-7-7---7-----7--7--7--7--|

E|-------------------------|-------------------------|
B|-------------------------|-------------------------|
G|-------------------------|-------------5-----------|
D|-------------------------|-3--3--3--3--5-----------|
A|-5--5--5--5--5--5--5--5--|-3--3--3--3--3-----------|
D|-4--4--4--4--4--4--4--4--|-3--3--3--3--------------|


 Both Guitars
E|----------------------------------|
B|----------------------------------|
G|----------------------------------|
D|-5-7----5-7----5-7----5-7----9--9-|
A|-5-7----5-7----5-7----5-7----9--9-|
D|-5-7----5-7----5-7----5-7----9--9-|  2x

Suggest correction
Give kudos to tab author, rate the tab!
1 2 3 4 5
comments
print report bad tab
guest
You may want to rate the tab now too:
select rating
Wanna post a correction for this tab? Suggest correction