Oops, an error
Loading. Please wait.

I Get Off Tab

version 1
version 1

Whole song

Interactive

31,959 views 27 this week
3 commentsread comments
1 2 3 4 5
x 5
add to favorites
launch autoscroll
font size
0
reset
how to read this tab
guitar tuner
×
Best way to learn
"I Get Off"
Autoscroll
slow
fast
+/-
esc
set tempo
stop
Author
Difficulty
Tuning
  follow
intermediate
C# G# C# F# A# D#
I Get Off - Halestorm
Tabbed by:Kse19852009
Email:Buttered_toast14@sbcglobal.net
Tuning:DADGBe

[Intro]                 after 1st chorus b4 2nd vrs
e|--------------------------------|------------------------------------------|
B|--------------------------------|------------------------------------------|
G|----77667766--repeat as needed--|7-777-7-777-666-666-6-666-----------------|
D|----99999999--------------------|9-999-9-999-999-999-9-999-----------------|
A|--------------------------------|------------------------------------------|
E|--------------------------------|------------------------------------------|
 pm   ________                    __________________________

[Verse]                    v----just a guess im not sure what the chord is
e|--------------------------2-----------------------------------------------|
B|----12----7---------7-----7-----------------------------------------------|
G|------------7-----5-------6-----x2----------------------------------------|
D|---------------7----------------------------------------------------------|
A|-------------------------------------7-9-10-7-9-10-7-9-10-7-9-10----------|
E|--------------------------------------------------------------------------|
   nh__________________             pm____________________________

[Chorus]                               gradually let off palm mute
e|--------------------------------------------------------------------------|
B|--------------------------------------------------------------------------|
G|--------------------------------------------------------------------------|
D|--4-4-0-----2-2---2--------4-4-0----5-5-5-5-7-7-7-7--------x2-------------|
A|--2-0-0--00-2-2xx-2--------2-0-0-00-5-5-5-5-7-7-7-7-----------------------|
E|------0--00-2-2xx-2-22020------0-00-5-5-5-5-7-7-7-7-----------------------|
  pm       __   __   ____          _                  then back to intro/vrs

[Bridge]
e|--------------------------------------|------------------------------------|
B|--------------------------------------|------------------------------------|
G|--------------------------------------|--77-77-77-77----------44-44-44-44--|
D|--------------------------------------|--77-77-77-77-------x3-44-44-44-44--|
A|-----------------------------------x2-|--55-55-55-55----------22-22-22-22--|
E|-009007009007007h9009007004030200-----|--55-55-55-55----------22-22-22-22--|
pm __ __ __ __ __   __ __ __ _ _ _  ^--1rst solo rythem  ^-------------------| 2nd part of

[Solo]                                                           solo
|---------------------------------------------------------------------------|
|15--------------------------7----------------------------------------------|
|---------15--14129----------9B-9B-9-7--------7----77---77---77p4p0-4-------|
|---x8---B14--------14161412------------9-7-9----9----9----9-------7-7-4-4--|
|14-12------------------------------------------------------------------7-7-|
|---------------------------------------------------------------------------|

|-------|
|-------|
|-------|
|-------|
|-5-----|
|---9---|

 pm _____
e|--------------------------------3-2---7-5---10-9----12-10----14-12---17BB-|
B|--------------------------3-2-------3-----5------10-------12-------15-----|
G|---------------------4-2------4-------------------------------------------|
D|---------------4-2-------4------------------------------------------------|
A|---------5-2-0-----5------------------------------------------------------|
E|9/-2-5-2------------------------------------------------------------------|
 Back to chorus and whatever else after this.

************************************

| x  Dead note
| h  Hammer-on
| p  Pull-off
| /  Slide up
 
************************************
Suggest correction
comments
print report bad tab
3 comments total.
0 reply
kse19852009 124 Oct 23, 2009 05:30 PM

crap i see some some stuff that needs fixin grrr

0 reply
kse19852009 124 Oct 23, 2009 05:33 PM

IT is In drop D standard not C#

0 reply
LuchadorMetal 466 Jul 16, 2014 09:18 AM, edited at 01:18 pm

.

guest
You may want to rate the tab now too:
select rating
Wanna post a correction for this tab? Suggest correction