Oops, an error
Loading. Please wait.

I Get Off Bass Tab

version 2
version 2

Whole song

Interactive

4,064 views 12 this week
no commentswrite comment
1 2 3 4 5
please rate
add to favorites
launch autoscroll
font size
0
reset
guitar tuner
Autoscroll
slow
fast
+/-
esc
set tempo
stop
Help us to improve Ultimate-Guitar.com Take our survey!
×
Author
Difficulty
Tuning
intermediate
D A D G B E
Song:		'I Get Off'
Artist:		Halestorm
Tabber: Jamie R.
Tuning:		4-string: Drop D Standard (DADG low-to-high)

Josh plays with a 4-string live, probably tuned to drop-D, however
the recording does sound like he hits a low B note at the beginning,
suggesting that he might have recorded it with a 5-string. But my 
bass player needed the tab, so I would like to credit JeffDiablo to
for some of the harder to hear notes. Like I said, I play guitar, so
I'm open to suggestions.

Verse 1
G|----------------|----------------|----------------|----------------|
D|----------------|----------------|----------------|----------------|
A|----------------|------------2~--|----------------|----------------|
D|----------------|----------------|----------------|----------------|

G|----------------|----------------|----------------|----------------|
D|----------------|----------------|----------------|----------------|
A|2~--------------|----------------|----------------|----------7---7-|
D|----------------|0~--------------|5~--------------|2~--------------|

G|----------------|----------------|----------------|----------------|
D|----------------|----------------|----------------|----------------|
A|2~------------2-|----------------|----------------|----------------|
D|----------4-----|0---------------|2---------------|4~--------------|

G|--------|
D|--------|
A|--------|
D|--------|


Chorus 1
G|----------------|----------------|----------------|----------------|
D|----------------|----------------|----------------|----------------|
A|2---------------|----------------|2---------------|----------------|
D|------0---------|2---2-0-2-0-2-0-|------0---------|5-5-5-5h7-7-7-7-|

G|----------------|----------------|----------------|----------------|
D|----------------|----------------|----------------|----------------|
A|2---------------|----------------|2---------------|----------------|
D|------0---------|2---2-0-2-0-2-0-|------0---------|5-5-5-5h7-7-7-7\|

G|----------------|----------------------------------|
D|----------------|-----------------------7-7-9-9/12~|
A|----------------|--------------7~-10-10------------|
D|9~------------9-|9-10-10-12-12---------------------|


Verse 2
G|----------------|----------------|----------------|----------------|
D|----------------|----------------|--------5/7-5---|----------------|
A|2~--------------|----------------|----------------|7--------\5---/-|
D|----------------|0~--------------|5~--------------|----------------|

G|------------------|----------------|----------------|----------------|
D|------------------|----------------|----------------|----------------|
A|------------------|----------------|----------------|--------9~------|
D|9---------12----7-|0~--------------|2-x-2~----------|4-----9---------|


Chorus 2
G|----------------|----------------|----------------|----------------|
D|----------------|----------------|----------------|----------------|
A|2---------------|----------------|2---------------|----------------|
D|------0---------|2---2-0-2-0-2-0-|------0---------|5-5-5-5h7-7-7-7-|

G|----------------|----------------|----------------|----------------|
D|----------------|----------------|----------------|----------------|
A|2---------------|----------------|2---------------|----------------|
D|------0---------|2---2-0-2-0-2-0-|------0---------|5-5-5-5h7-7-7-7-|


Lead-ish Break
G|----------------|----------------|----------------|----------------|
D|----------------|----------------|----------------|----------------|
A|2222202222202202|2222220---------|2222202222202202|2222220---------|
D|----------------|--------4-3-2-0-|----------------|--------4-3-2-0-|

G|----------------|----------------|----------------|----------------|
D|----------------|----------------|----------------|----------------|
A|----------------|----------------|----------------|----------------|
D|55--55--55--55--|55--55--55--55--|55--55--55--55--|22--22--22--22--|

G|----------------|----------------|----------------|----------------|
D|----------------|----------------|----------------|----------------|
A|----------------|----------------|----------------|----------------|
D|4~--------------|----------------|----------------|----------------|


Chorus 3
G|----------------|----------------|----------------|----------------|
D|----------------|----------------|----------------|----------------|
A|2---------------|----------------|2---------------|----------------|
D|------0---------|2---2-0-2-0-2-0-|------0---------|5-5-5-5h7-7-7-7-|

G|----------------|----------------|----------------|----------------|
D|----------------|----------------|----------------|----------------|
A|2---------------|----------------|2---------------|----------------|
D|------0---------|2---2-0-2-0-2-0-|------0---------|5-5-5-5h7-7-7-7-|


Ending
G|----------------|----------------|----------------|----------------|
D|----------------|----------------|----------------|----------------|
A|2222202222202202|2222220---------|2222202222202202|2222220---------|
D|----------------|--------4-3-2-0-|----------------|--------4-3-2-0-|
Suggest correction
What's this?
You can suggest a correction to this tab. Community and Mods will review your correction and vote to approve or reject it.
comments
We did not receive enough feedback on this tab! Please rate:
print report bad tab
1 2 3 4 5
guest
You may want to rate the tab now too:
select rating
Please do not post tabs as comments. Select "correction" instead!