Oops, an error
Loading. Please wait.

I Like It Heavy tab

178 views 24 this week
no commentswrite comment
1 2 3 4 5
x 3
add to favorites
×
Save as Personal and add changes to this tab that will be seen only by you. Learn more ›
×
You can save this tab as Personal to edit and correct it or add notes. All changes will be seen only by you. Learn more »
launch autoscroll
font size
0
reset
how to read this tab
guitar tuner
edit
Autoscroll
slow
fast
+/-
esc
set tempo
stop
Tuning:
Guitar 1 - Drop E - (E B E A C# F#)
Guitar 2 - Drop B - (B F# B E G# C#)

[Intro]

 (Guitar 1)
  (0:00)
F#|---------------------------------|---------------------------------|
C#|---------------------------------|---------------------------------|
A |-2---2---2-2---2---2---2---2-5-5-|-5-2-2---2-2---2---2---2---2-5-5-|
E |-2---2---2-2---2---2---2---2-5-5-|-5-2-2---2-2---2---2---2---2-5-5-|
B |-0---0---0-0---0---0---0---0-0-0-|-3-0-0---0-0---0---0---0---0-0-0-|
E |---------------------------------|---------------------------------|

 [Verse]

  (0:07)
F#|---------------------------------|---------------------------------|
C#|---------------------------------|---------------------------------|
A |-5-2-2---2-2---2---2---2---2-5-5-|-5-2-2---2-2---2---2---2---2-5-5-|
E |-5-2-2---2-2---2---2---2---2-5-5-|-5-2-2---2-2---2---2---2---2-5-5-|
B |-3-0-0---0-0---0---0---0---0-0-0-|-3-0-0---0-0---0---0---0---0-0-0-|
E |---------------------------------|---------------------------------|

  (0:16)
F#|---------------------------------|---------------------------------|
C#|---5-5---5-5---5---5---5---5-----|---------------------------------|
A |-5-4-4---4-4---4---4---4---4-5-5-|-5-2-2---2-2---2---2---2---2-5-5-|
E |-5-2-2---2-2---2---2---2---2-5-5-|-5-2-2---2-2---2---2---2---2-5-5-|
B |-3-2-2---2-2---2---2---2---2-0-0-|-3-0-0---0-0---0---0---0---0-0-0-|
E |---------------------------------|---------------------------------|

  (0:24)
F#|---------------------------------|---------------------------------|
C#|-5---5---5-5---5---5---5---5-----|---------------------------------|
A |-4---4---4-4---4---4---4---4-5-5-|-5-2-2---2-2---2---2---2---2-5-5-|
E |-2---2---2-2---2---2---2---2-5-5-|-5-2-2---2-2---2---2---2---2-5-5-|
B |-2---2---2-2---2---2---2---2-0-0-|-3-0-0---0-0---0---0---0---0-0-0-|
E |---------------------------------|---------------------------------|

  (0:30)
F#|---------------------------------|---------------------------------|
C#|---------------------------------|---------------------------------|
A |-5-2-2---2-2---2---2---2---2-5-5-|-5-2-2---2-2---2---2---2---2-5-5-|
E |-5-2-2---2-2---2---2---2---2-5-5-|-5-2-2---2-2---2---2---2---2-5-5-|
B |-3-0-0---0-0---0---0---0---0-0-0-|-3-0-0---0-0---0---0---0---0-0-0-|
E |---------------------------------|---------------------------------|

  (0:39)
F#|---------------------------------|---------------------------------|
C#|---5-5---5-5---5---5---5---5-----|---------------------------------|
A |-5-4-4---4-4---4---4---4---4-5-5-|-5-2-2---2-2---2---2---2---2-5-5-|
E |-5-2-2---2-2---2---2---2---2-5-5-|-5-2-2---2-2---2---2---2---2-5-5-|
B |-3-2-2---2-2---2---2---2---2-0-0-|-3-0-0---0-0---0---0---0---0-0-0-|
E |---------------------------------|---------------------------------|

  (0:47)
F#|---------------------------------|---------------------------------|
C#|-5---5---5-5---5---5---5---5-----|---------------------------------|
A |-4---4---4-4---4---4---4---4-5-5-|-5-2-----------------------------|
E |-2---2---2-2---2---2---2---2-5-5-|-5-2-----------------------------|
B |-2---2---2-2---2---2---2---2-0-0-|-3-0-----------------------------|
E |---------------------------------|---------------------------------|

  (Guitar 2)
  (0:31)
C#|---------------------------------|
G#|---------------------------------|
E |---------------------------------|
B |---------------------------0-----|
F#|---------------------------0-3-3-|
B |-----------------------------3-3-|

  (0:32)
C#|---------------------------------|---------------------------------|
G#|---------------------------------|---------------------------------|
E |---------------------------------|---------------------------------|
B |---0-0---0-0---0---0---0---0-----|-0-0-0---0-0---------------------|
F#|-3-0-0---0-0---0---0---0---0-3-3-|-0-0-0---0-0---------------------|
B |-3---------------------------3-3-|---------------------------------|

  (0:44)
C#|---------------------------------|---------------------------------|
G#|---------------------------------|---------------------------------|
E |---------------------------------|---------------------------------|
B |---0-0---0-0---0---0---0---0-----|-7---7---7-7---7---7---7---7-----|
F#|-3-0-0---0-0---0---0---0---0-3-3-|-7---7---7-7---7---7---7---7-3-3-|
B |-3---------------------------3-3-|-----------------------------3-3-|

  (0:50)
C#|---------------------------------|
G#|---------------------------------|
E |---------------------------------|
B |---0-----------------------------|
F#|-3-0-----------------------------|
B |-3-------------------------------|

[Chorus]

  (Guitar 1)
  (0:55)
F#|---------------------------------|---------------------------------|
C#|---------------------------------|---------------------------------|
A |-2-------------------------------|-2-------------------------------|
E |-2-------------------------------|-2-------------------------------|
B |-0-------------------------------|-0-------------------------------|
E |---------------------------------|---------------------------------|

  (1:03)
F#|---------------------------------|---------------------------------|
C#|-5-------------------------------|---------------------------------|
A |-4-------------------------------|-2-------------------------------|
E |-2-------------------------------|-2-------------------------------|
B |-2-------------------------------|-0-------------------------------|
E |---------------------------------|---------------------------------|

  (1:11)
F#|---------------------------------|---------------------------------|
C#|-5-------------------------------|---------------------------------|
A |-4-------------------------------|-----------------------------5-5-|
E |-2-------------------------------|-----------------------------5-5-|
B |-2-------------------------------|-----------------------------0-0-|
E |---------------------------------|---------------------------------|

  (1:15)
F#|---------------------------------|---------------------------------|
C#|---------------------------------|---------------------------------|
A |-2---2---2-2---2---2---2---2-5-5-|-5-2-2---2-2---2---2---2---2-5-5-|
E |-2---2---2-2---2---2---2---2-5-5-|-5-2-2---2-2---2---2---2---2-5-5-|
B |-0---0---0-0---0---0---0---0-0-0-|-3-0-0---0-0---0---0---0---0-0-0-|
E |---------------------------------|---------------------------------|

  (1:23)
F#|---------------------------------|
C#|---------------------------------|
A |-5-2-2---2-2---2---2---2---2-5-5-|
E |-5-2-2---2-2---2---2---2---2-5-5-|
B |-3-0-0---0-0---0---0---0---0-0-0-|
E |---------------------------------|

  (Guitar 2)
  (0:55)
F#|---------------------------------|---------------------------------|
C#|---------------------------------|---------------------------------|
A |---------------------------------|---------------------------------|
E |-12------------------------------|-12------------------------------|
B |-12------------------------------|-12------------------------------|
E |---------------------------------|---------------------------------|

  (1:03)
F#|---------------------------------|---------------------------------|
C#|---------------------------------|---------------------------------|
A |---------------------------------|---------------------------------|
E |-12------------------------------|-12------------------------------|
B |-12------------------------------|-12------------------------------|
E |---------------------------------|---------------------------------|

  (1:11)
F#|---------------------------------|---------------------------------|
C#|---------------------------------|---------------------------------|
A |---------------------------------|---------------------------------|
E |-11------------------------------|---------------------------------|
B |-11------------------------------|-----------------------------3-3-|
E |---------------------------------|-----------------------------3-3-|

  (1:15)
C#|---------------------------------|---------------------------------|
G#|---------------------------------|---------------------------------|
E |---------------------------------|---------------------------------|
B |-0---0---0-0---0---0---0---0-----|---0-0---0-0---0---0---0---0-----|
F#|-0---0---0-0---0---0---0---0-3-3-|-3-0-0---0-0---0---0---0---0-3-3-|
B |-----------------------------3-3-|-3---------------------------3-3-|

  (1:23)
F#|---------------------------------|
C#|---------------------------------|
A |---------------------------------|
E |---0-0---0-0---0---0---0---0-----|
B |-3-0-0---0-0---0---0---0---0-3-3-|
E |-3---------------------------3-3-|
Suggest correction
Creating personal tab
Creating personal tab
You can edit any tab online and save it as your Personal.

You can edit, replace or remove any tab part or add personal notes – all changes will be seen only by you.

Personal tabs can be accessed anytime from any device, even offline.
Learn more »
Give kudos to tab author, rate the tab!
1 2 3 4 5
comments
print report bad tab
guest
You may want to rate the tab now too:
select rating
Wanna post a correction for this tab? Suggest correction