Oops, an error
Loading. Please wait.

I Miss The Misery Bass Tab

version 1
version 1

Whole song

Interactive

11,803 views 57 this week
1 commentread comment
1 2 3 4 5
excellent!
x 9
add to favorites
launch autoscroll
font size
0
reset
guitar tuner
Autoscroll
slow
fast
+/-
esc
set tempo
stop
Help us to improve Ultimate-Guitar.com Take our survey!
×
Author
-----------------------------------------------------------------------------
                             I MISS THE MISERY - Halestorm
-----------------------------------------------------------------------------

Tabbed By : teh-funnay

Tuning: DADG (Drop D)


 INTRO: "Ohh..Oh..Ohh..."
G|-----------------------------------------------------------------|
D|-----------------------------------------------------------------|
A|-0-0-0-----------3-3-3-------------------------------------------|
D|---------------------------------5-5-5-----------5--5--0---0-3-3-|

G|-----------------------------------------------------------------|
D|-----------------------------------------------------------------|
A|-0-0-0-----------3-3-3-------------------------------------------|
D|---------------------------------5-5-5-----------5--5--0---0-3-3-|

 Verse: "I've been a mess..."
G|-----------------------------------------------------------------|
D|-----------------------------------------------------------------|
A|-0-0-0-0-0-0-0-0-3-3-3-3-3-3-3-3-----------------5-5-5-5-5-5-5-5-|
D|---------------------------------5-5-5-5-5-5-5-5-----------------|

G|-----------------------------------------------------------------|
D|-----------------------------------------------------------------|
A|-0-0-0-0-0-0-0-0-3-3-3-3-3-3-3-3-----------------5-5-5-5-5-5-5-5-|
D|---------------------------------5-5-5-5-5-5-5-5-----------------|

G|-----------------------------------------------------------------|
D|-----------------------------------------------------------------|
A|-0-0-0-0-0-0-0-0-3-3-3-3-3-3-3-3-----------------5-5-5-5-5-5-5-5-|
D|---------------------------------5-5-5-5-5-5-5-5-----------------|
 

G|-----------------------------------------------------------------|
D|-----------------------------------------------------------------|
A|-----------------------------------------------------------------|
D|-3---3---3---3---3---3---3---3---2---2---2---2---5---5---9\------|

 Chorus: "I miss the bad..."
G|-----------------------------------------------------------------|
D|-----------------------------------------------------------------|
A|-0-0-0-----------3-3-3-------------------------------------------|
D|---------------------------------5-5-5-----------5--5--0---0-3-3-|

G|-----------------------------------------------------------------|
D|-----------------------------------------------------------------|
A|-0-0-0-----------3-3-3-------------------------------------------|
D|---------------------------------5-5-5-----------5--5--0---0-3-3-|

G|-----------------------------------------------------------------|
D|-----------------------------------------------------------------|
A|-0---0-------0-0-3--3--------------------------------------------|
D|---------------------------------5---5-----------0---------------|

G|-----------------------------------------------------------------|
D|-----------------------------------------------------------------|
A|-----------------------------------------------------------------|
D|-3---3---------------------------2---------------5---------------|

G|-----------------------------------------------------------------|
D|-----------------------------------------------------------------|
A|-0-0-0-----------3-3-3-------------------------------------------|
D|---------------------------------5-5-5-----------5--5--0---0-3-3-|

 Verse: "I've tried, but..."
G|-----------------------------------------------------------------|
D|-----------------------------------------------------------------|
A|-0-0-0-0-0-0-0-0-3-3-3-3-3-3-3-3-----------------5-5-5-5-5-5-5-5-|
D|---------------------------------5-5-5-5-5-5-5-5-----------------|

G|-----------------------------------------------------------------|
D|-----------------------------------------------------------------|
A|-0-0-0-0-0-0-0-0-3-3-3-3-3-3-3-3-----------------5-5-5-5-5-5-5-5-|
D|---------------------------------5-5-5-5-5-5-5-5-----------------|

G|-----------------------------------------------------------------|
D|-----------------------------------------------------------------|
A|-0-0-0-0-0-0-0-0-3-3-3-3-3-3-3-3-----------------5-5-5-5-5-5-5-5-|
D|---------------------------------5-5-5-5-5-5-5-5-----------------|

G|-----------------------------------------------------------------|
D|-----------------------------------------------------------------|
A|-----------------------------------------------------------------|
D|-3---3---3---3---3---3---3---3---2---2---2---2---5---5---9\------|

 Chorus: "Miss the bad..."
G|-----------------------------------------------------------------|
D|-----------------------------------------------------------------|
A|-0-0-0-----------3-3-3-------------------------------------------|
D|---------------------------------5-5-5-----------5--5--0---0-3-3-|

G|-----------------------------------------------------------------|
D|-----------------------------------------------------------------|
A|-0-0-0-----------3-3-3-------------------------------------------|
D|---------------------------------5-5-5-----------5--5--0---0-3-3-|

G|-----------------------------------------------------------------|
D|-----------------------------------------------------------------|
A|-0---0-------0-0-3--3--------------------------------------------|
D|---------------------------------5---5-----------0---------------|

G|-----------------------------------------------------------------|
D|-----------------------------------------------------------------|
A|-----------------------------------------------------------------|
D|-3---3---------------------------2---------------5---------------|


 Bridge: "Just know that..."
G|---------------------------------------------------------14-12----|
D|---------------------------------------------------------------14-|
A|-----------------------------------7-7-9--9-9-12--12-12-----------|
D|-3---3---3---3---3---3---5---5---7--------------------------------|

G|---------------------------------------------------------14-12-14-|
D|-----------------------------------------------------14-----------|
A|-----------------------------------7-7-9--9-9-12--12--------------|
D|-3---3---3---3---3---3---5---5---7--------------------------------|

G|-----------------------------------------------------------------|
D|-----------------------------------------------------------------|
A|-----------------------------------------------------------------|
D|-3---3---3---3---3---3---5---5---0-------2-------3-------5-------|

G|-----------------------------------------------------------------|
D|-----------------------------------------------------------------|
A|-----------------------------------------------------------------|
D|-3--3----------------------------2--2------------5-----\---------|

  "I miss the bad..."
G|-----------------------------------------------------------------|
D|-----------------------------------------------------------------|
A|-----------------------------------------------------------------|
D|-----------------------------------------------------------------|

 (Cool drum riff)

 Chorus: "I miss the rough..."
G|-----------------------------------------------------------------|
D|-----------------------------------------------------------------|
A|-0-0-0-----------3-3-3-------------------------------------------|
D|---------------------------------5-5-5-----------5--5--0---0-3-3-|

G|-----------------------------------------------------------------|
D|-----------------------------------------------------------------|
A|-0-0-0-----------3-3-3-------------------------------------------|
D|---------------------------------5-5-5-----------5--5--0---0-3-3-|

G|-----------------------------------------------------------------|
D|-----------------------------------------------------------------|
A|-0---0-------0-0-3--3--------------------------------------------|
D|---------------------------------5---5-----------0---------------|

G|-----------------------------------------------------------------|
D|-----------------------------------------------------------------|
A|-----------------------------------------------------------------|
D|-3---3---------------------------2---------------5---------------|

 Outro: "Ohh.Oh.Ohh..."
G|-----------------------------------------------------------------|
D|-----------------------------------------------------------------|
A|-----------------------------------------------------------------|
D|-7--7------------5--5------------4--4------------3------5--------|

G|-----------------------------------------------------------------|
D|-----------------------------------------------------------------|
A|-----------------------------------------------------------------|
D|-7---------------5---------------4---------------3---------------|


| /  slide up
| \  slide down
| h  hammer-on
| p  pull-off
| ~  vibrato
| +  harmonic
| x  Mute note
===============================================================================
Suggest correction
What's this?
You can suggest a correction to this tab. Community and Mods will review your correction and vote to approve or reject it.
comments
print report bad tab
1 comment total.
0 reply
jhsp77 64 wrote on May 10 2013, 07:28 am

isn't this tab simplified too much?
i think there should be much more notes.

guest
You may want to rate the tab now too:
select rating
Please do not post tabs as comments. Select "correction" instead!