Oops, an error
Loading. Please wait.

Im Not An Angel tab

937 views 12 this week
no commentswrite comment
1 2 3 4 5
1 last vote to show rating
add to favorites
×
Save as Personal and add changes to this tab that will be seen only by you. Learn more ›
×
You can save this tab as Personal to edit and correct it or add notes. All changes will be seen only by you. Learn more »
launch autoscroll
font size
0
reset
how to read this tab
guitar tuner
edit
Autoscroll
slow
fast
+/-
esc
set tempo
stop
Author
-------------------------------------------------------------------------------
                             I'M NOT AN ANGEL - Halestorm
-------------------------------------------------------------------------------
Tabbed by: hdas_2404
Tuning: Standard E tuning
This is my first tab, so I haven't completely got the hang of it yet. 
Let me know if there are some mistakes.
The tabs are for the electric guitar in the song.


INTRO

   1 + 2 + 3 + 1 + 2 + 3*  + 1 + 2 + 3 + 1 + 2 + 3 + 1 + 2 + 3 + 1 + 2 + 3 + 1 + 2 + 3 + 1 + 2 + 3 + 1 + 
e|10p9-9\7-7---7-------6/7-7-5-------------------------------8-------------------------------------------| 
B|-----------------------------------------------7h8p7-------8---10--8---7-------------------------------|
G|---------------------------------------------------------------------------7-----------6-------7p6-----|
D|---------------------------------------------------------------------------------------------------9---|
A|-------------------------------------------------------------------------------------------------------|
E|-------------------------------------------------------------------------------------------------------|
*the 6/7 is very fast, and you don't need to use it. But remember, 6/7 all comes under that eighth note.


VERSE 1

The electric doesn't play here. If you want, you can hold the last note in the intro though.


CHORUS

This part is basically chords, strummed once on every first beat.
  1 + 2 + 3 + 1 + 2 + 3 + 1 + 2 + 3 + 1 + 2 + 3 +
e|3-----------2-----------2-----------2-----------|
B|0-----------2-----------3-----------3-----------|
G|0-----------2-----------4-----------2-----------|  
D|0-----------2-----------4-----------0-----------|   x3
A|2-----------0-----------2-----------------------|
E|3-----------------------------------------------|

e|0-----------0-----------3-----------3-----------|
B|0-----------0-----------0-----------0-----------|
G|0-----------0-----------0-----------0-----------|
D|2-----------2-----------0-----------0-----------|
A|2-----------2-----------2-----------2-----------|
E|0-----------0-----------3-----------3-----------|


VERSE 2

This is also only chords, but they're played very softly. It also starts after two bars of no electric.
It's the same timing as the chorus, on every first beat, so I won't give you the timing here, just the
chord progression.
  Bm   A6   G    G
e|2----2----3----3----|
B|3----2----0----0----|
G|4----2----0----0----|
D|4----2----0----0----|  x4
A|2----0----2----2----|
E|----------3----3----|

This is the part which goes 'but we both know that I'll never change'.
Get louder from F#m. Here, strum on every beat.
  1 + 2 + 3 + 1 + 2 + 3 + 1 + 2 + 3 + 1 + 2 + 3 +
e|------------------------------------------------|
B|------------------------------------------------|
G|------------------------------------------------|
D|2---2---2---2---2---2---4---4---4---4---4---4---|
A|2---2---2---2---2---2---4---4---4---4---4---4---|
E|0---0---0---0---0---0---2---2---2---2---2---2---|


CHORUS


BRIDGE

Yet again, only chords. Also, it's really loud only for the lines 
'I had my first taste, I fell from grace, it left me in this place'.
After that, don't play until the chorus comes up.
  1 2 3 1 2 3 1 2 3 1 2 3 1 2 3 1 2 3 1 2 3 1 2 3
e|3-----3-----2-----2-----2-----2-----3-----3--------------------------------|
B|0-----0-----3-----3-----3-----3-----0-----0--------------------------------|
G|0-----0-----4-----4-----2-----2-----0-----0--------------------------------|
D|0-----0-----4-----4-----0-----0-----0-----0--------------------------------|
A|2-----2-----2-----2-----------------2-----2--------------------------------|
E|3-----3-----------------------------3-----3--------------------------------|

  1 2 3 1 2 3 1 2 3 1 2 3 1 2 3 1 2 3 1 2 3 1 2 3 1
e|2-----2-----2-----3-----2-----------3-----------2--------------------------|
B|3-----2-----3-----0-----3-----------0-----------2--------------------------|
G|4-----2-----2-----0-----4-----------0-----------3--------------------------|
D|4-----2-----0-----0-----4-----------0-----------4--------------------------|
A|2-----0-----------2-----2-----------2-----------4--------------------------|
E|------------------3-----------------3-----------2--------------------------|


CHORUS


OUTRO

  1 2 3 1 2 3 1 2 3 1 2 3           1 2 3 1 2 3 1 2 3 1 2 3 1 2 3 1 2 3 1 2 3 1 2 3 
e|3-----2-----2-----2-----|       e|3-----3-----2-----2-----3-----3-----3-----------|
B|0-----2-----3-----3-----|       B|0-----0-----3-----3-----0-----0-----0-----------|
G|0-----2-----4-----4-----|       G|0-----0-----4-----4-----0-----0-----0-----------|
D|0-----2-----4-----4-----|  x2   D|0-----0-----4-----4-----0-----0-----0-----------|
A|2-----0-----2-----2-----|       A|2-----2-----2-----2-----2-----2-----2-----------|
E|3-----------------------|       E|3-----3-----------------3-----3-----3-----------|


And that's it. Let me know if you found this useful, or not. haha :)
************************************

| /   slide up
| \   slide down
| h   hammer-on
| p   pull-off


************************************

            
            
Suggest correction
Creating personal tab
Creating personal tab
You can edit any tab online and save it as your Personal.

You can edit, replace or remove any tab part or add personal notes – all changes will be seen only by you.

Personal tabs can be accessed anytime from any device, even offline.
Learn more »
Give kudos to tab author, rate the tab!
1 2 3 4 5
comments
print report bad tab
guest
You may want to rate the tab now too:
select rating
Wanna post a correction for this tab? Suggest correction