Oops, an error
Loading. Please wait.

Love Bites So Do I Bass Tab

version 1
version 1

Whole song

Interactive

11,453 views 15 this week
1 commentread comment
1 2 3 4 5
accurate
x 12
add to favorites
launch autoscroll
font size
0
reset
guitar tuner
Autoscroll
slow
fast
+/-
esc
set tempo
stop
Help us to improve Ultimate-Guitar.com Take our survey!
×
Author
Difficulty
Tuning
intermediate
D A D G B E
Halestorm
Love Bites So Do I

TUNING: (D,A,D,G)

Intro:
G|--------------------------------------------|
D|--------------------------------------------|
A|--------------------------------------------|   x4
D|----0--00-3p-00-5p-00--65-------------------|

Verse: prt 1
G|--------------------------------------------------------------------------|
D|--------------------------------------------------------------------------|
A|------------------------------------------------------------------------|x2
D|---5b---0-----0-----0----0-----5b-------88888888877--888888877------------|
prt 2
G|--------------------------------------------------------------------------|
D|--------------------------------------------------------------------------|
A|----------33--------------------------------------------------------------|
D|----333----------8888----7777----5555---6-6-6-6-66------------------------|

Chorus:
G|--------------------------------------------------------------------------|
D|--------------------------------------------------------------------------|
A|----------------11111--------------33333----------------------------------|
D|---00000--33333-------00000--33333----------------------------------------|

Verse: prt1 x2
       prt2 1

Chorus:x2

Pre-Bridge:
G|--------------------------------------------------------------------------|
D|--------------------------------------------------------------------------|
A|--------------11111---------------33333--11111----00000-------------------|
D|-00000--33333--------00000--33333------------------------55555---6666-----|

G|--------------------------------------------------------------------------|
D|--------------------------------------------------------------------------|
A|--------------------------------------------------------------------------|
D|--6-6-6-6-5-3b-0~~~-------------------------------------------------------|

Bridge:
prt 1
G|-----------------|
D|-----------------|
A|-----------------|
D|--0~~~~~~~~~~~---|

prt2
G|----REST---|                                                                
D|----REST---|
A|----REST---|
D|----REST---|

PRT 3
G|------------------------------------|
D|------------------6530--------------|
A|------------6530--------------------| X4
D|---0356530--------------------------|

PRT4
G|----------------------------------|
D|----------------------------------|
A|----------------------------------|  X10
D|-0-1-3----------------------------|

PRE SOLO:
G|--------------------------------------------------------------------------|
D|--------------------------------------------------------------------------|
A|--------------------------------------------------------------------------|
D|---0~----3~-----8~--------------------------------------------------------|

Solo: 
Chorus: x5

Outro:(LOVE BIIIIIIIIIIITEESSSSSSSS!!!)
G|--------------------------------------------------------------------------|
D|--------------------------------------------------------------------------|
A|--------------------------------------------------------------------------|
D|-----6-5-3----6-5-3------6-6-6-6-5-3b-0~~~--------------------------------|

The End....
Suggest correction
comments
print report bad tab
1 comment total.
+1 reply
7YD-GUITAR 172 wrote on January 23 2013, 11:59 am

Pre- Solo

D|---0--3--1~--|

guest
You may want to rate the tab now too:
select rating
Wanna post a correction for this tab? Suggest correction