Oops, an error
Loading. Please wait.

Love Bites So Do I Tab

version 1
version 1

Whole song

Interactive

35,561 views 69 this week
no commentswrite comment
1 2 3 4 5
x 4
add to favorites
launch autoscroll
font size
0
reset
how to read this tab
guitar tuner
Autoscroll
slow
fast
+/-
esc
set tempo
stop
Help us to improve Ultimate-Guitar.com Take our survey!
×
Author
Tuning
D A D G B E
Halestorm
Love Bites (So Do I)
Drop D tuning (DADgbe)

I like to play a lot of the open D notes with
the open A string to make it sound a little heavier.

[Intro] (Starts with a slide) (approx. 0:04)
e|--------------------------------------------------|
b|--------------------------------------------------|
g|--------------------------------------------------|
D|--------------------------------------------------|
A|----------------6-5-------------------------------|
D|0-00-3p0-00-5p0-6-5-------------------------------|

[Verse Part A] (0:20)
e|--------------------------------------------------|
b|--------------------------------------------------|
g|--------------------------------------------------|
D|--------------------------------------------------|
A|--------------------------------------------------|
D|0-3-5b-0-00-0-00-0-00-0---------------------------|

[Verse Part B] (The rhythm is tricky, barely play the A5 chords [7th fret])
(0:23) (0:31 play half of what is tabbed) 
e|--------------------------------------------------|
b|--------------------------------------------------|
g|--------------------------------------------------|
D|--------------------------------------------------|
A|-888888888888-77-888888888888-77------------------|
D|-888888888888-77-888888888888-77------------------|

[Post Verse/Pre-Chorus Part A](0:33)
e|--------------------------------------------------|
b|--------------------------------------------------|
g|--------------------------------------------------|
D|-----5-5------------------------------------------|
A|3-3--3-3------------------------------------------|
D|3-3-----------------------------------------------|

[Post Verse/Pre-Chorus Part B](0:35)
e|--------------------------------------------------|
b|--------------------------------------------------|
g|--------------------------------------------------|
D|3-3-3-3--2-2-2-2----------------------------------|
A|1-1-1-1--0-0-0-0--5-5-5-5-------------------------|
D|------------------5-5-5-5-------------------------|

[Post Verse/Pre-Chorus Part B]  (You can play it this way too)(0:35)
e|--------------------------------------------------|
b|--------------------------------------------------|
g|--------------------------------------------------|
D|--------------------------------------------------|
A|8-8-8-8--7-7-7-7--5-5-5-5-------------------------|
D|8-8-8-8--7-7-7-7--5-5-5-5-------------------------|

[Chorus] (Sounds like sometimes the guitarist strums these)(0:43)
e|--------------------------------------------------|
b|--------------------------------------------------|
g|--------------------------------------------------|
D|------3--------5----------------------------------|
A|0--3--1--0--3--3----------------------------------|
D|0--3-----0--3-------------------------------------|

Then you repeat

[Post-Chorus](1:38)
e|--------------------------------------------------|
b|--------------------------------------------------|
g|--------------------------------------------------|
D|33333333-22222222---------------------------------|
A|11111111-00000000-55555555------------------------|
D|------------------55555555------------------------|

[Break](1:44)
e|--------------------------------------------------|
b|--------------------------------------------------|
g|--------------------------------------------------|
D|--------------------------------------------------|
A|888-775-0-----------------------------------------|
D|888-775-0-----------------------------------------|

[Very Heavy Break](1:52)
e|--------------------------------------------------|
b|--------------------------------------------------|
g|--------------------------------------------------|
D|--------------------------------------------------|
A|--------------------------------------------------|
D|0-3-5-0-------------------------------------------|x2

(1:54)
e|--------------------------------------------------|
b|--------------------------------------------------|
g|--------------------------------------------------|
D|--------------------------------------------------|
A|--------------------------------------------------|
D|0-3-5-0-6-5-0-------------------------------------|

(1:55)
e|--------------------------------------------------|
b|--------------------------------------------------|
g|--------------------------------------------------|
D|--------------------------------------------------|
A|--------6-5-3-0-----------------------------------|
D|0-3-5-0-------------------------------------------|

(2:08) Play very quickly: I tremelo pick the low D string and land on the 3rd and 5th (hammer on)
e|--------------------------------------------------|
b|--------------------------------------------------|
g|--------------------------------------------------|
D|--------------------------------------------------|
A|--------------------------------------------------|
D|00h3h5-------------------------------------------|

(2:13)
e|--------------------------------------------------|
b|--------------------------------------------------|
g|--------------------------------------------------|
D|------3-------------------------------------------|
A|0--3--1-------------------------------------------|
D|0--3----------------------------------------------|

[Solo](2:20)
e|-------/s/-13v-15b-15v---20b-20v------------------|
b|/s/-15v-------------------------------------------|
g|--------------------------------------------------|
D|--------------------------------------------------|
A|--------------------------------------------------|
D|--------------------------------------------------|

while bending fret 20 (the note G) on the b string:(2:24)
e|-------20-----------------------------------------|
b|-20b////////-20br---------------------------------|
g|--------------------------------------------------|
D|--------------------------------------------------|
A|--------------------------------------------------|
D|--------------------------------------------------|

(2:26)
e|--------------------------------------------------|
b|-18-20-18-20v-------------------------------------|
g|--------------------------------------------------|
D|--------------------------------------------------|
A|--------------------------------------------------|
D|--------------------------------------------------|

(2:27)
e|-------17-20-20-17--------------------------------|
b|-18-20-------------20-18--------------------------|
g|--------------------------------------------------|
D|--------------------------------------------------|
A|--------------------------------------------------|
D|--------------------------------------------------|

back to the 

At the very end there is some kind of variation on the break at 1:44
It is similar to this:(2:59)
e|--------------------------------------------------|
b|--------------------------------------------------|
g|--------------------------------------------------|
D|--------------------------------------------------|
A|7-0-5-0-7-0-5-0-888-775-0-------------------------|
D|7-0-5-0-7-0-5-0-888-775-0-------------------------|

Also note at spots like (0:40) and (1:21) it sounds like the guitarist is just pulling 
off these notes:
e|--------------------------------------------------|
b|--------------------------------------------------|
g|--------------------------------------------------|
D|--------------------------------------------------|
A|--------------------------------------------------|
D|5p3p0---------------------------------------------|

And that ends the song. Its a fun song to play and was good practice to learn by ear. 
Hope it helps.

************************************

| p     pull off
| h     hammer on
| b     bend
| br    slowly release or let down the note you are bending
| /s/   slide to
| v     vibrato

************************************
Suggest correction
comments
print report bad tab
guest
You may want to rate the tab now too:
select rating
Wanna post a correction for this tab? Suggest correction