Oops, an error
Loading. Please wait.

Love Bites So Do I Tab

version 3
version 3

Whole song

Interactive

25,811 views 96 this week
3 commentsread comments
1 2 3 4 5
excellent!
x 16
add to favorites
launch autoscroll
font size
0
reset
how to read this tab
guitar tuner
Autoscroll
slow
fast
+/-
esc
set tempo
stop
Help us to improve Ultimate-Guitar.com Take our survey!
×
Author
Tuning
D A D G B E
Tuning: Drop D (DADGBe)


[Intro]

e|-----| e|-----------------------|
B|-----| B|-----------------------|
G|-----| G|-----------------------|
D|-12\-| D|-0-00-3p0-00-5p0-0-6-5-|  x8
A|-12\-| A|-0-00-3p0-00-5p0-0-6-5-|
D|-12\-| D|-0-00-3p0-00-5p0-0-6-5-|
              ..     ..     .


[Verse]

e|-------------------------------------------------------------------------------|
B|-------------------------------------------------------------------------------|
G|-------------------------------------------------------------------------------|
D|-0-00-0-00-0-00-3s5-0-00-0-00-0-00-3s5-8888888888886s86s8-8888888888886s86s8-5-|
A|-0-00-0-00-0-00-3s5-0-00-0-00-0-00-3s5-8888888888886s86s8-8888888888886s86s8-5-|
D|-0-00-0-00-0-00-3s5-0-00-0-00-0-00-3s5-8888888888886s86s8-8888888888886s86s8-5-|
     ..   ..   ..       ..   ..   ..

e|------------------------------------------------------------------------------|
B|------------------------------------------------------------------------------|
G|------------------------------------------------------------------------------|
D|-0-00-0-00-0-00-3s5-0-00-0-00-0-00-3s5-8888888888886s86s8-3-3-3-3-10-10-10-10-|
A|-0-00-0-00-0-00-3s5-0-00-0-00-0-00-3s5-8888888888886s86s8-3-3-3-3-10-10-10-10-|
D|-0-00-0-00-0-00-3s5-0-00-0-00-0-00-3s5-8888888888886s86s8-3-3-3-3-10-10-10-10-|
     ..   ..   ..       ..   ..   ..

e|-----------------------------------------------|
B|-----------------------------------------------|
G|-----------------------------------------------|
D|-8---8---8---8---7---7---7---7---5---5---5---5-|
A|-8---8---8---8---7---7---7---7---5---5---5---5-|
D|-8---8---8---8---7---7---7---7---5---5---5---5-|

e|-------------------------|
B|-------------------------|
G|-------------------------|
D|-------------------------|
A|----------------------35-|
D|-653-65365-653-653-356---|


[Chorus]

e|-------------------------------------------------------------------------|
B|-------------------------------------------------------------------------|
G|-----------------3-3-3-3-3-3-3-3-----------------5-5-5-5-----------------|
D|-0-0-0-0-3-3-3-3-3-3-3-3-3-3-3-3-0-0-0-0-3-3-3-3-5-5-5-5-3p0-------------| x2
A|-0-0-0-0-3-3-3-3-1-1-1-1-1-1-1-1-0-0-0-0-3-3-3-3-3-3-3-3-----3p0-5p3-----|
D|-0-0-0-0-3-3-3-3-----------------0-0-0-0-3-3-3-3---------------------5p3-|

Post-Chorus-Riff-Thing:
e|------------------------------|
B|------------------------------|
G|------------------------------|
D|-------------------3----------|
A|---------------3h5---5p3------|
D|-6p5p3p0-3h5h6-----------3h5~-|


[Verse]

e|-------------------------------------------------------------------------------|
B|-------------------------------------------------------------------------------|
G|-------------------------------------------------------------------------------|
D|-0-00-0-00-0-00-3s5-0-00-0-00-0-00-3s5-8888888888886s86s8-8888888888886s86s8-5-|
A|-0-00-0-00-0-00-3s5-0-00-0-00-0-00-3s5-8888888888886s86s8-8888888888886s86s8-5-|
D|-0-00-0-00-0-00-3s5-0-00-0-00-0-00-3s5-8888888888886s86s8-8888888888886s86s8-5-|
     ..   ..   ..       ..   ..   ..

e|------------------------------------------------------------------------------|
B|------------------------------------------------------------------------------|
G|------------------------------------------------------------------------------|
D|-0-00-0-00-0-00-3s5-0-00-0-00-0-00-3s5-8888888888886s86s8-3-3-3-3-10-10-10-10-|
A|-0-00-0-00-0-00-3s5-0-00-0-00-0-00-3s5-8888888888886s86s8-3-3-3-3-10-10-10-10-|
D|-0-00-0-00-0-00-3s5-0-00-0-00-0-00-3s5-8888888888886s86s8-3-3-3-3-10-10-10-10-|
     ..   ..   ..       ..   ..   ..

e|-------------------------------------------------|
B|-------------------------------------------------|
G|-------------------------------------------------|
D|-8-8-8-8-8-8-8-8-7-7-7-7-7-7-7-7-5-5-5-5-5-5-5-5-|
A|-8-8-8-8-8-8-8-8-7-7-7-7-7-7-7-7-5-5-5-5-5-5-5-5-|
D|-8-8-8-8-8-8-8-8-7-7-7-7-7-7-7-7-5-5-5-5-5-5-5-5-|

e|--------------------------|
B|--------------------------|
G|--------------------------|
D|--------------------------|
A|----------------------35--|
D|-35653-35653-35653-356----|


[Chorus]

e|-------------------------------------------------------------------------|
B|-------------------------------------------------------------------------|
G|-----------------3-3-3-3-3-3-3-3-----------------5-5-5-5-----------------|
D|-0-0-0-0-3-3-3-3-3-3-3-3-3-3-3-3-0-0-0-0-3-3-3-3-5-5-5-5-3p0-------------| x2
A|-0-0-0-0-3-3-3-3-1-1-1-1-1-1-1-1-0-0-0-0-3-3-3-3-3-3-3-3-----3p0-5p3-----|
D|-0-0-0-0-3-3-3-3-----------------0-0-0-0-3-3-3-3---------------------5p3-|

e|-------------------------------------------------------------------|
B|-------------------------------------------------------------------|
G|-3-3-3-3-3-3-3-3-2-2-2-2-2-2-2-2-----------------------------------|
D|-3-3-3-3-3-3-3-3-2-2-2-2-2-2-2-2-5-5-5-5-5-5-5-5-6--6--6-6--5--3-0-|
A|-1-1-1-1-1-1-1-1-0-0-0-0-0-0-0-0-5-5-5-5-5-5-5-5-6--6--6-6--5--3-0-|
D|---------------------------------5-5-5-5-5-5-5-5-6--6--6-6--5--3-0-|


[Bridge]

e|----------------------------------------------------------------------|
B|----------------------------------------------------------------------|
G|----------------------------------------------------------------------|
D|----------------------------------------------------------------------|
A|----3---3----3---3---653----3---3---653----3---3---653----3---3-------|
D|-356-356--356-653-653----356-653-653----356-653-653----356-653-653356-|
   ........ .............. .............. .............. ..............

e|-----------------------------------------------------------|
B|-----------------------------------------------------------|
G|-----------------------------------------------------------|
D|-----------------------------------------------------------|
A|----3---3---653----3---3---653----3---3---653----3---3-----|
D|-356-653-653----356-653-653----356-653-653----356-653-653--|


e|---------------------------------------------------------------------------------|
B|---------------------------------------------------------------------------------|
G|---------------------------------------------------------------------------------|
D|---------------------------------------------------------------------------------|
A|---------------------------------------------------------------------------------|
D|-0h1h3h5-0h1h3h5-0h1h3h5-0h1h3h5-0h1h3h5-0h1h3h5-0h1h3h5-0h1h3h5-0h1h3h5-0h1h3h5-|

e|----------------------|
B|----------------------|
G|----------------------|
D|-0------3------1------|
A|-0------3------1------|
D|-0------3------1------|


[Solo]

e|------------------20b21r20-----20-----------------------------20-----------|
B|-----18-20b21r20-----------22-----22p20-18h20p18h20--/18-20-22----22-20-22-|
G|-19------------------------------------------------------------------------|
D|---------------------------------------------------------------------------|
A|---------------------------------------------------------------------------|
D|---------------------------------------------------------------------------|


[Chorus]

e|-------------------------------------------------------------------------|
B|-------------------------------------------------------------------------|
G|-----------------3-3-3-3-3-3-3-3-----------------5-5-5-5-----------------|
D|-0-0-0-0-3-3-3-3-3-3-3-3-3-3-3-3-0-0-0-0-3-3-3-3-5-5-5-5-3p0-------------| x2
A|-0-0-0-0-3-3-3-3-1-1-1-1-1-1-1-1-0-0-0-0-3-3-3-3-3-3-3-3-----3p0-5p3-----|
D|-0-0-0-0-3-3-3-3-----------------0-0-0-0-3-3-3-3---------------------5p3-|

e|-----------------------------------------------------------------|
B|-----------------------------------------------------------------|
G|-----------------3-3-3-3-3-3-3-3-----------------5-5-5-5-5-5-5-5-|
D|-0-0-0-0-3-3-3-3-3-3-3-3-3-3-3-3-0-0-0-0-3-3-3-3-5-5-5-5-5-5-5-5-| x2
A|-0-0-0-0-3-3-3-3-1-1-1-1-1-1-1-1-0-0-0-0-3-3-3-3-3-3-3-3-3-3-3-3-|
D|-0-0-0-0-3-3-3-3-----------------0-0-0-0-3-3-3-3-----------------|


[Outro]

e|----------------------------------|
B|----------------------------------|
G|----------------------------------|
D|-6--3--6-6--3--6-6--6--6-6--5-3-0-|
A|-6--3--6-6--3--6-6--6--6-6--5-3-0-|
D|-6--3--6-6--3--6-6--6--6-6--5-3-0-|

e|-----------|
B|-----------|
G|-----------|
D|-----------|
A|----3---35-|
D|-356-653---|


************************************

| /   slide up
| \   slide down
| h   hammer-on
| p   pull-off
| ~   vibrato
| .   palm mute
| b   bend
| r  release bend

************************************
Suggest correction
What's this?
You can suggest a correction to this tab. Community and Mods will review your correction and vote to approve or reject it.
comments
print report bad tab
3 comments total.
+3 reply
HshSlngngSlshr 111 wrote on July 22 2013, 12:23 am

Exactly how I play it! Are you stalking me?

0 reply
mark.daubenschm 11 wrote on September 11 2014, 11:27 am

i think the outro is more like this:

D| 6--3--5-6--3--5-6--6--6--6--5--3--0~~
A| 6--3--5-6--3--5-6--6--6--6--5--3--0~~
D| 6--3--5-6--3--5-6--6--6--6--5--3--0~~

solid tab otherwise though.

0 reply
roi_pedrosa 11 wrote on November 14 2015, 08:46 pm

i'd like it :v
5 stars....

guest
You may want to rate the tab now too:
select rating
Please do not post tabs as comments. Select "correction" instead!