Oops, an error
Loading. Please wait.

Mz Hyde Bass Tab

version 1
version 1

Whole song

Interactive

5,009 views 18 this week
no commentswrite comment
1 2 3 4 5
x 7
add to favorites
launch autoscroll
font size
0
reset
guitar tuner
Autoscroll
slow
fast
+/-
esc
set tempo
stop
Help us to improve Ultimate-Guitar.com Take our survey!
×
Author
Intro
G|-------------------------|
D|-------------------------|
A|-------------------------|x3
D|-0-0000-0000-00000000000-|

G|-------------|
D|-------------|
A|-------------|x1
D|-0-0000-0000-|

G|------------------------|------------------------|
D|------------------------|------------------------|
A|-------------------1-0~-|----------------------0-|x1
D|-0-05300-05300-0530-----|-0-05300-05300-0530356--|

Verse
G|----------------|------------------|
D|----------------|------------------|
A|---------11-100-|-0--------11-10---|x3
D|-00-033-3-------|--00-033-3------3-|

Pre-Chorus
G|-------------------------------------------------------------------|
D|-------------------------------------------------------------------|
A|--------------------------------------------------111111110x-------|x1
D|-000000333333222222111111000000333333222222111111-------------03p0-|

Chorus
G|------------------|-----------------|
D|------------------|-----------------|
A|---------11110000-|---------1---0---|x2
D|-00003333---------|-00003333--5---1-|

G|------------|
D|------------|
A|-111111110x-|x1
D|------------|

Post-Chorus
G|------------------------|
D|------------------------|
A|----------------------0-|x1
D|-0-05300-05300-0530356--|

Verse
G|----------------|------------------|
D|----------------|------------------|
A|---------11-100-|-0--------11-10---|x3
D|-00-033-3-------|--00-033-3------3-|

Pre-Chorus
G|-------------------------------------------------------------------|
D|-------------------------------------------------------------------|
A|--------------------------------------------------111111110x-------|x1
D|-000000333333222222111111000000333333222222111111-------------03p0-|

Chorus
G|------------------|-----------------|
D|------------------|-----------------|
A|---------11110000-|---------1---0---|x2
D|-00003333---------|-00003333--5---1-|

G|-------------------|
D|-------------------|
A|-1111111100000000x-|x1
D|-------------------|

Bridge
G|---------------------------------------------|
D|---------------------------------------------|
A|-5~----4~----3~----2~------------------------|x3
D|---------------------------------------------|

G|-------------------------------------------------|
D|-------------------------------------------------|
A|-5~----4~----0----02~---24~---46~---67~---6~---x-|x1
D|-------------------------------------------------|

Last Chorus
G|------------------|-----------------|
D|------------------|-----------------|
A|---------11110000-|---------1---0---|x4
D|-00003333---------|-00003333--5---1-|

G|--------------------|
D|--------------------|
A|-111111110x---------|x1
D|-------------666653-|

Outro
G|------------------------|----------------------------|
D|------------------------|----------------------------|
A|-------------------1-0~-|----------------------0~----|x1
D|-0-05300-05300-0530-----|-0-05300-05300-0530356---0x-|
Suggest correction
comments
print report bad tab
guest
You may want to rate the tab now too:
select rating
Wanna post a correction for this tab? Suggest correction