Oops, an error
Loading. Please wait.

Mz Hyde Tab

version 1
version 1

Whole song

Interactive

21,756 views 48 this week
6 commentsread comments
1 2 3 4 5
x 18
add to favorites
launch autoscroll
font size
0
reset
how to read this tab
guitar tuner
×
Best way to learn
"Mz Hyde"
Autoscroll
slow
fast
+/-
esc
set tempo
stop
Author
Tuning
  follow
D A D G B E
Halestorm
Hz. Hyde
Drop D tuning

Once again I like to play the A string opens with the D string opens to make it sound heavier.

Tabbed by:
DethScarred of Youtube
DaveMustaine7 of UltimateGuitar


[Intro]

(0:14)
e|-----------|-----|----------------------------------|
b|-----------|-----|----------------------------------|
g|-----------|-----|----------------------------------|
D|-----------|-----|----------------------------------|
A|0-0-0h3h5--|-----|-88-7-----------------------------|
D|0-0-0h3h5--|[x3]-|-88-7-----------------------------|

(0:17)
e|-----------|-----|----------------------------------|
b|-----------|-----|----------------------------------|
g|-----------|-----|----------------------------------|
D|-----------|-----|----------------------------------|
A|0-0-0h3h5--|-----|----------------------------------|
D|0-0-0h3h5--|[x3]-|-0h3h5/s/7v-----------------------|


[Verse]

(0:21)
e|---------------------------------------------------------------|
b|---------------------------------------------------------------|
g|---------------------------------------------------------------|
D|---------------------------------------------------------------|
A|0-0--0-3-3--3-8-8--8-7-7--7-0-0--------------------------------|
D|0-0--0-3-3--3-8-8--8-7-7--7-0-0--------------------------------|

(0:25)
e|---------------------------------------------------------|
b|---------------------------------------------------------|
g|---------------------------------------------------------|
D|---------------------------------------------------------|
A|0-0--0-3-3--3-8-8--8-7-3---------------------------------|
D|0-0--0-3-3--3-8-8--8-7-3---------------------------------|

[Pre-Chorus Part A] 
(slowly tremelo pick these)

(0:41)
e|----------------------------------------------------------------------|
b|----------------------------------------------------------------------|
g|----------------------------------------------------------------------|
D|----------------------------------------------------------------------|
A|----------------------------------------------------------------------|
D|-0-0-0-0-0-0--3-3-3-3-3-3--2-2-2-2-2-2--1-1-1-1-1-1-------------------|


[Pre-Chorus Part B]

(0:48)
e|-----------------------------------------------------------|
b|-----------------------------------------------------------|
g|-----------------------------------------------------------|
D|-----------------------------------------------------------|
A|-8-8-8-8-8-8-8-8--7----------------------------------------|
D|-8-8-8-8-8-8-8-8--7----------------------------------------|


[Chorus]

(0:52)
e|---------------------------------------------------------------------|
b|---------------------------------------------------------------------|
g|---------------------------------------------------------------------|
D|---------------------------------------------------------------------|
A|-0-0-0-0--3-3-3-3--8-8-8-8--7-7-7-7--0-0-0-0--3-3-3-3--8--5--7--3----|
D|-0-0-0-0--3-3-3-3--8-8-8-8--7-7-7-7--0-0-0-0--3-3-3-3--8--5--7--3----|

Play Pre-Chorus Part B
Play Intro
Back to Verse

(1:58)
e|------------------------------------------------------------------|
b|------------------------------------------------------------------|
g|------------------------------------------------------------------|
D|------------------------------------------------------------------|
A|-8-8-8-8-8-8-8-8--7-7-7-7-7-7-7-7---------------------------------|
D|-8-8-8-8-8-8-8-8--7-7-7-7-7-7-7-7---------------------------------|


[Interlude]

(2:01)
e|--------------------------------------------------|
b|----3---------3--------3---------3----------------|
g|--2---2-----2---2----2---2-----2---2--------------|
D|0-------------------------------------------------|
A|---------4--------3---------2---------------------|
D|--------------------------------------------------|(x4)

(2:30)
e|--------------------------------------------------|
b|----3-------3-------------------------------------|
g|--2---2-----2-------------------------------------|
D|------------0-------------------------------------|
A|1-----------0-------------------------------------|
D|--------------------------------------------------|


[Chorus]

(3:04) Play Pre-Chorus Part B
(3:08) Play Intro



************************************

| h  hammer on
| v  vibrato
| s  slide

************************************
Suggest correction
comments
print report bad tab
6 comments total. Showing first comments.
0 reply
BexNirvanaGirl 20 Feb 06, 2013 05:46 AM

Awesome tab, but I think the "better beware.." part goes..
D]7-5--3-2--
A]5-3--1-0--

+1 reply
fanA7X6661 20 Feb 05, 2014 09:16 AM

Good tab! I have a cover on Youtube. One thing that I did wrong and I noticed you did it too (it's very minor) is the slide at the intro, the
D---0h3h5/s/7v-- should actually be a slide to 6 D---0h3h5/s/6v
Very minor but that's how they play it live.
Also, at the bridge, you have the first arpeggio right, but the bass note goes down chromatically from there. I play it
e|-------------------------------------------------------------|
b|------3-----------3---------3----------3---------------3-----|
g|----2----2------2---2-----2---2-------2--2-----------2---2---|
D|--0----------------------------------------------------------|
A|-------------4---------3-----------2--(last time)-1----------|
D|-------------------------------------------------------------|
One last thing, the "Something scary" chords end on an Eb, 1's instead of the 3's. I give it 4 stars.

-1 reply
michelezannoni94 10 May 16, 2015 10:42 AM

Clearly wrong. it's not good at all, if you try to play this you will see and hear a lot of differences...

guest
You may want to rate the tab now too:
select rating
Wanna post a correction for this tab? Suggest correction