Oops, an error
Loading. Please wait.

Pieces Tab

928 views 3 this week
1 commentread comment
1 2 3 4 5
excellent!
x 1
add to favorites
launch autoscroll
font size
0
reset
how to read this tab
guitar tuner
Tab Pro tools
  • play this tab
  • loop segment
  • change instrument
  • show fretboard
  • metronome
Autoscroll
slow
fast
+/-
esc
set tempo
stop
Contributor
Halestorm - Pieces

Intro + Couplet:
e-------------------------------------------------|  } 2x Whole thing v
B-------------------------------------------------|  } 2x Whole thing v
G----------------------------------------8--------|  } 2x Whole thing v
D----6------4----6-----1----6------4----6------1--|  } 2x Whole thing v
A-------------------------------------------------|  } 2x Whole thing v
D-6-6--6-2-2--4-4-4-1-1--6-6--6-2-2--4-4--4-1-1---|  } 2x Whole thing v

e------------------------------------------------  } 2x Whole thing ^
B------------------------------------------------  } 2x Whole thing ^
G------------------------------------------------  } 2x Whole thing ^
D----6------4----6-----1-----6------4----6-----1-  } 2x Whole thing ^
A------------------------------------------------  } 2x Whole thing ^
D-6-6--6-2-2--4-4-4-1-1---6-6--6-2-2--4-4-4-1-1--  } 2x Whole thing ^

Pre-chorus:
e-------------------------------|
B-------------------------------|
G-------------------------------|
D-2----1----6--4--2-2222222222--|
A-2----1----6--4--2-2222222222--|
D-2----1----6--4--2-2222222222--|
	            **********

Chorus:
e---------------------------------------|
B---------------------------------------|
G---------------------------------------|
D-6-66-2-22-4-44-1-11--6-66-2-22-4-44-1-|
A-6-66-2-22-4-44-1-11--6-66-2-22-4-44-1-|
D-6-66-2-22-4-44-1-11--6-66-2-22-4-44-1-|

Couplet 2:
e--------------------------------------------------------------------------| 2x
B--------------------------------------------------------------------------| 2x
G----------------------------------------8---------------------------------| 2x
D----6------4----6-----1----6------4----6------1----6------4----6-----1----| 2x
A--------------------------------------------------------------------------| 2x
D-6-6--6-2-2--4-4-4-1-1--6-6--6-2-2--4-4--4-1-1--6-6--6-2-2--4-4-4-1-1-----| 2x

e-----------------------------| 4x
B-----------------------------| 4x
G-----------------------------| 4x
D-66-6622-2244-4411-11--------| 4x
A-66-6622-2244-4411-11--------| 4x
D-66-6622-2244-4411-11-   ----| 4x
     **   **   **   **

Pre chorus:
e--------|
B--------|
G--------|
D-2----4-|
A-2----4-|
D-2----4-|


Chorus:
e--------------------------------------------| 2x
B--------------------------------------------| 2x
G--------------------------------------------| 2x
D-6-66-2-22-4-44-1-11--6-66-2-22-4-44-11-----| 2x
A-6-66-2-22-4-44-1-11--6-66-2-22-4-44-11-----| 2x
D-6-66-2-22-4-44-1-11--6-66-2-22-4-44-11-----| 2x

Bridge (solo):
e--------------------------------------------------------|
B--------------------------------------------------------|
G-44-4s8~\--8-11-11-11-11-11-11p13\-44-4s8~\--------9----|
D-------------12-12-12-12-12-12-12\----------6-10-6---6--|
A--------------------------------------------------------|
D--------------------------------------------------------|
  **                                **       * *  * * *

e---------------------------------------------------------------------|
B----------11h12p11-9-11h12s16----------------------------7--7-7-7-9~-|
G-44-4s8~\----------------------44-4s8~\--------9-------7b----8-8-8---|
D----------------------------------------6-10-6---9-6-9~--------------|
A---------------------------------------------------------------------|
D---------------------------------------------------------------------|
  **		                **

e----------10b-10b-10b-10b-|
B--------------------------|
G----------^at prechorus^--|
D--------------------------|
A--------------------------|
D--------------------------|

Background Guitar in bridge:
e---------------------| 4x
B---------------------| 4x
G---------------------| 4x
D-2-2s6-2-2s4-444-----| 4x
A-2-2s6-2-2s4-444-----| 4x
D-2-2s6-2-2s4-444-----| 4x

(Prechorus)
e-------------------------------|
B-------------------------------|
G-------------------------------|
D-2----4----6--4--2-2222222222--|
A-2----4----6--4--2-2222222222--|
D-2----4----6--4--2-2222222222--|
	            **********

Chorus:
e--------------------------------------------| 2x
B--------------------------------------------| 2x
G--------------------------------------------| 2x
D-6-66-2-22-4-44-1-11--6-66-2-22-4-44-11-----| 2x
A-6-66-2-22-4-44-1-11--6-66-2-22-4-44-11-----| 2x
D-6-66-2-22-4-44-1-11--6-66-2-22-4-44-11-----| 2x

End with:
e-------------------|
B-------------------|
G-------------------|
D-15-14-12-7-9-5-6~-|
A-15-14-12-7-9-5-6~-|
D-15-14-12-7-9-5-6~-|
comments
We did not receive enough feedback on this tab! Please rate:
print report bad tab
1 2 3 4 5
1 comment total.
0 reply
TwanJoker wrote on March 5 2010, 04:40 pm

thnx for posting this :)

I want to post or [tab]
guest
You may want to rate the tab now too:
select rating
Please do not post tabs as comments. Select "correction" instead!