Oops, an error
Loading. Please wait.

Private Parts Tab

1,804 views 1 this week
no commentswrite comment
1 2 3 4 5
excellent!
x 3
add to favorites
launch autoscroll
font size
0
reset
how to read this tab
guitar tuner
Autoscroll
slow
fast
+/-
esc
set tempo
stop
Help us to improve Ultimate-Guitar.com Take our survey!
×
Author
Difficulty
Tuning
intermediate
D A D G B E
Halestorm - Private Parts

Tabbed by sickparamour

Drop D


Intro & Verse
e|-------------------------------------------|
B|-------------------------------------------|
G|--------------(piano part)-----------------|
D|-------------------------------------------|
A|-------------------------------------------|
D|-------------------------------------------|


Chorus (0:38)
e|-------------------------------------------|
B|-------------------------------------------|
G|---------------------------77777777--------|
D|---77777777222222224444444477777777--------|
A|---77777777222222224444444455555555--------|
D|---777777772222222244444444----------------|


(0:50)
e|-------------------------------------------|
B|-------------------------------------------|
G|---------------------------7777~-----------|
D|---7777777722222222444444447777~-----------|
A|---7777777722222222444444445555~-----------|
D|---777777772222222244444444----------------|


(1:02)
e|-------------------------------------------|
B|-------------------------------------------|
G|---------------------------7777/9999-------|
D|---7777777722222222444444447777/9999-------|
A|---7777777722222222444444445555/7777-------|
D|---777777772222222244444444----------------|


Verse II (1:14)
e|-------------------------------------------|
B|-------------------------------------------|
G|----------------------77-77-77-66-66-66----|
D|---44-44-44--22-22-22-77-77-77-44-44-44----|   x2
A|---44-44-44--22-22-22-55-55-55-44-44-44----|
D|---44-44-44--22-22-22----------------------|


(1:36)
e|-------------------------------------------|
B|-------------------------------------------|
G|-------7~-----------7~------7~-------------|
D|-----7~--7~-------7~--7~--7~--7~-----------|
A|---5~------5~---5~------5~------5~---------|
D|-------------------------------------------|


Chorus (1:49)
e|-------------------------------------------|
B|-------------------------------------------|
G|---------------------------77777777--------|
D|---77777777222222224444444477777777--------|   x2
A|---77777777222222224444444455555555--------|
D|---777777772222222244444444----------------|


(2:13)
e|-------------------------------------------|
B|-------------------------------------------|
G|---------------------------7777/9999-------|
D|---7777777722222222444444447777/9999-------|
A|---7777777722222222444444445555/7777-------|
D|---777777772222222244444444----------------|


Bridge (2:25)
e|-------------------------------------------|
B|-------------------------------------------|
G|-------------------7777777777777777--------|
D|---44444444444444447777777777777777--------|
A|---44444444444444445555555555555555--------|
D|---4444444444444444------------------------|
       xxxx  xxxx  xx  xxxx  xxxx  xx


(2:31)
e|-------------------------------------------|
B|-------------------------------------------|
G|-------------------------------------------|
D|---77777777777777772~----------------------|
A|---77777777777777772~----------------------|
D|---77777777777777772~----------------------|
       xxxx  xxxx  xx


Outro (2:54)
e|-------------------------------------------|
B|-------------------------------------------|
G|---------------------------77777777--------|
D|---77777777222222224444444477777777--------|   x3
A|---77777777222222224444444455555555--------|
D|---777777772222222244444444----------------|


(3:30)
e|-------------------------------------------|
B|-------------------------------------------|
G|---------------------------7777/9999-------|
D|---7777777722222222444444447777/99997-4~---|
A|---7777777722222222444444445555/77777-4~---|
D|---777777772222222244444444---------7-4~---|


| ~   let ring
| /   slide up
| x   mute note
Suggest correction
Give kudos to tab author, rate the tab!
1 2 3 4 5
comments
print report bad tab
guest
You may want to rate the tab now too:
select rating
Wanna post a correction for this tab? Suggest correction