Oops, an error
Loading. Please wait.
We have an official Rock Show tab made by UG professional guitarists. Check out the tab »
×
16,985 views 21 this week
1 commentread comment
1 2 3 4 5
x 8
add to favorites
×
Save as Personal and add changes to this tab that will be seen only by you. Learn more ›
×
You can save this tab as Personal to edit and correct it or add notes. All changes will be seen only by you. Learn more »
launch autoscroll
font size
0
reset
how to read this tab
guitar tuner
edit
Autoscroll
slow
fast
+/-
esc
set tempo
stop
Author
Difficulty
intermediate
Tuning: EADGBe

e|---------------|---------------|
B|---------------|---------------|
G|---------------|-5-5-----------|
D|-9-9---9--9--9-|-5-5---7--7--7-| (x6)
A|-7-7---7--7--7-|-3-3---7--7--7-|
E|-0-0---0--0--0-|-------5--5--5-|

[Chorus]
(Organ)
e|----------------|----------------|----------------|----------------|
B|----------------|----------------|----------------|----------------|
G|-5--------------|-0--------------|-4--------------|-7--------------|
D|-5--------------|-2--------------|-5--------------|-7--------------|
A|-3--------------|-2--------------|-5--------------|-5--------------|
E|----------------|-0--------------|-3--------------|----------------|

e|---------------------12~~~~~~~~~~|
B|-------------8h10/12~~~~~~~~~~~~~|
G|-7-9------7h9--------------------|
D|---------------------------------|
A|---------------------------------|
E|---------------------------------|
                                        (1:09)
e|---------------|---------------|      e|---------------|---------------|
B|---------------|---------------|      B|---------------|---------------|
G|---------------|-5-5-----------|      G|---------------|---------------|
D|-2-2---2--2--2-|-5-5---7--7--7-| x4   D|---------------|---------------|
A|-2-2---2--2--2-|-3-3---7--7--7-|      A|--7~~~~~~~~~~~~|~~~~~~~~~~~~~~~|
E|-0-0---0--0--0-|-------5--5--5-|      E|---------------|---------------|

Chorus Clean part (only second time and on the solo) 
e|-----3--------3----|----3--------3----|----3-------3----|----5--------5---|
B|------3--------3---|-----3--------3---|-----3-------3---|-----5--------5--|
G|---5----5---5----5-|------------------|-----------------|--7----7---7----7|
D|--5-5--5---5-5--5--|--2----2---2----2-|--5----5---5---5-|-7-7--7---7-7--7-|
A|-3-------33-------3|-2-2--2---2-2--2--|-5-5--5---5---5--|5-------55-------|
E|-------------------|0-------00-------0|3-------33------3|-----------------|

(Chorus Distortion)
e|----------------|----------------|----------------|----------------|
B|----------------|----------------|----------------|----------------|
G|-5--------------|-0--------------|-4--------------|-7--------------|
D|-5--------------|-2--------------|-5--------------|-7--------------|
A|-3--------------|-2--------------|-5--------------|-5--------------|
E|----------------|-0--------------|-3--------------|----------------|

[Solo Lick] 
(1:38)
e|-12h15p12------------------------------------------------------------------|
B|---------15p12h15-15b17~~~~~~~~~~~~~~~~~~~~~~~~~~~~~~~~~~~~~~~-------------|
G|---------------------------------------------------------------------------|
D|---------------------------------------------------------------------------|(x3)
A|---------------------------------------------------------------------------|
E|---------------------------------------------------------------------------|

[Solo] 
(1:48)
e|----------------------|----------------------------------------------------|
B|-15b17-15-12----12----|-15b17-15-12----12----------------------------------|
G|-------------14----12-|-------------14----12\11----11-12-14~~~~~~~-14-14-14|
D|----------------------|----------------------------------------------------|
A|----------------------|----------------------------------------------------|
E|----------------------|----------------------------------------------------|

e|-------------------------------|-12h15p12-----------------------------------|
B|-15----15--15-15---15----------|---------15p12------------------------------|
G|-14b16-16--16-16---16-14p12h14-|--------------12h14-12\11-------------------|
D|-------------------------------|-------------------------14p12---12h14~~~~~~|
A|-------------------------------|--------------------------------------------|
E|-------------------------------|--------------------------------------------|

e|---------------|---------------|
B|---------------|---------------|
G|---------------|-5-5-----------|
D|-2-2---2--2--2-|-5-5---7--7--7-| (x8)
A|-2-2---2--2--2-|-3-3---7--7--7-|
E|-0-0---0--0--0-|-------5--5--5-|

[Chorus/Outro]
e|------------------------------|-------------------------------|
B|------------------------------|-------------------------------|
G|-5-5---5--5--5--5-5---5--5--5-|-0-0---0--0--0--0-0---0--0--0--|
D|-5-5---5--5--5--5-5---5--5--5-|-2-2---2--2--2--2-2---2--2--2--|
A|-3-3---3--3--3--3-3---3--3--3-|-2-2---2--2--2--2-2---2--2--2--|
E|------------------------------|-0-0---0--0--0--0-0---0--0--0--|               

e|------------------------------|-------------------------------|
B|------------------------------|-------------------------------|
G|-4-4---4--4--4--4-4---4--4--4-|-7-7---7--7--7--7-7---7--7--7--|
D|-5-5---5--5--5--5-5---5--5--5-|-7-7---7--7--7--7-7---7--7--7--|
A|-5-5---5--5--5--5-5---5--5--5-|-5-5---5--5--5--5-5---5--5--5--|
E|-3-3---3--3--3--3-3---3--3--3-|-------------------------------|

[Solo 2] 
(2:36)
e|-12h15p12------------------------------------------------------------------|
B|---------15p12h15-15b17~~~~~~~~~~~~~~~~~~~~~~~~~~~~~~~~~~~~~~~-------------|
G|---------------------------------------------------------------------------|
D|---------------------------------------------------------------------------|
A|---------------------------------------------------------------------------|
E|---------------------------------------------------------------------------|

e|----------------------|
B|-15b17-15-12----12----|
G|-------------14----12-|
D|----------------------|
A|----------------------|
E|----------------------|

e|-12h15p12---------12-----12h15p12---------12-----12-14-15-17-15-14-|
B|---------15p12h15-15b17~~--------15p12h15-15b17--------------------|
G|-------------------------------------------------------------------|
D|-------------------------------------------------------------------|(x3)
A|-------------------------------------------------------------------|
E|-------------------------------------------------------------------|

e|-12h15p12------------------------------------------------------------------|
B|---------15p12h15-15b17*~~~~~~~~~~~~~~~~~~~~~~~~~~~~~~~~~~~~~~-------------|
G|---------------------------------------------------------------------------|
D|---------------------------------------------------------------------------|
A|---------------------------------------------------------------------------|
E|---------------------------------------------------------------------------|

e|-----------------------------------------------------------------------------|
B|--15p12h15------15----15----15----15----15----15----15-----------------------|
G|----------14p12-14b17-14b17-14b17-14b17-14b17-14b17-14b17-12h14p12-11-12-----|
D|------------------------------------------------------------------------12-14|
A|-----------------------------------------------------------------------------|
E|-----------------------------------------------------------------------------|


************************************

| ~  Vibrato
| h  Hammer-on
| /  Slide up
| p  Pull-off
| b  Bend
| \  Slide down

************************************

            
            
Suggest correction
Creating personal tab
Creating personal tab
You can edit any tab online and save it as your Personal.

You can edit, replace or remove any tab part or add personal notes – all changes will be seen only by you.

Personal tabs can be accessed anytime from any device, even offline.
Learn more »
comments
print report bad tab
1 comment total.
+2 reply
sugarsupernova 10 Jul 08, 2013 06:01 AM

Hey there! Pretty nice tab but I'm pretty sure the beginning of the solo goes like this!

Solo (1:48)
e|----------------------|
B|-15b17-13-12-13-------|
G|-------------------12-|
D|----------------------|
A|----------------------|
E|----------------------

guest
You may want to rate the tab now too:
select rating
Wanna post a correction for this tab? Suggest correction