Oops, an error
Loading. Please wait.

Scream tab

82 views 3 this week
no commentswrite comment
1 2 3 4 5
x 4
add to favorites
×
Save as Personal and add changes to this tab that will be seen only by you. Learn more ›
×
You can save this tab as Personal to edit and correct it or add notes. All changes will be seen only by you. Learn more »
launch autoscroll
font size
0
reset
how to read this tab
guitar tuner
edit
Autoscroll
slow
fast
+/-
esc
set tempo
stop
[Intro]

   PM----|    PM----|      PM----|    PM--------|   PM----|    PM----|      PM----|    PM--------|
e|-----------------------|------------------------|-----------------------|------------------------|
B|-----------------------|------------------------|-----------------------|------------------------|
G|-----------------------|------------------------|-----------------------|------------------------|
D|-----------------------|------------------------|-----------------------|------------------------|
A|-----------------------|------------------------|-----------------------|------------------------|
D|-5-5-5-5----5-5-5-5----|-8-8-8-8----8-8-8-8-8-8-|-3-3-3-3----3-3-3-3----|-1-1-1-1----1-1-1-1-1-1-|

   PM----|    PM----|      PM----|    PM--------|   PM----|    PM----|
e|-----------------------|------------------------|-----------------------|
B|-----------------------|------------------------|-----------------------|
G|-----------------------|------------------------|-----------------------|
D|-----------------------|------------------------|-----------------------|
A|-----------------------|------------------------|-----------------------|
D|-5-5-5-5----5-5-5-5----|-8-8-8-8----8-8-8-8-8-8-|-3-3-3-3----3-3-3-3----|

[Verse]

                                                                            PM-----|
e|-----------------------|------------------------|-----------------------|------------------------|
B|-----------------------|------------------------|-----------------------|------------------------|
G|-----------------------|------------------------|-----------------------|------------------------|
D|-------5---5-3---------|--------------------0---|-------5---5-3---------|------------------------|
A|-----------------5/----|------------------------|-----------------5/----|----------10\----11\----|
D|-----------------------|------------------------|-----------------------|-10-10-10-10\----11\----|

  PM---|                                           PM---|                  PM---|
e|-----------------------|------------------------|-----------------------|------------------------|
B|-----------------------|------------------------|-----------------------|------------------------|
G|-----------------------|------------------------|-----------------------|------------------------|
D|-----------------------|-------5---5-3----------|-----------------------|------------------2h0---|
A|-------5\--------------|-----------------5/-----|-------8\--------------|-------3\---------------|
D|-5-5-5-5\--------------|------------------------|-8-8-8-8\--------------|-3-3-3-3\---------------|

  PM---|                                           PM---|                  PM---------------------|
e|-----------------------|------------------------|-----------------------|------------------------|
B|-----------------------|------------------------|-----------------------|------------------------|
G|-----------------------|------------------------|-----------------------|------------------------|
D|-----------------------|-------5---5-3----------|-----------------------|------------------------|
A|-------5\--------------|-----------------5/-----|-------8\--------------|-10--10--10--10--10--10-|
D|-5-5-5-5\--------------|------------------------|-8-8-8-8\--------------|-10--10--10--10--10--10-|

[Chorus]

e|-----------------------|------------------------|-----------------------|------------------------|
B|-----------------------|------------------------|-----------------------|------------------------|
G|-----------------------|------------------------|-----------------------|------------------------|
D|-5-5-5-5----5-5-5-5----|-8-8-8-8----8-8-8-8-8-8-|-3-3-3-3----3-3-3-3----|-1-1-1-1----1-1-1-1-1-1-|
A|-5-5-5-5----5-5-5-5----|-8-8-8-8----8-8-8-8-8-8-|-3-3-3-3----3-3-3-3----|-1-1-1-1----1-1-1-1-1-1-|
D|-5-5-5-5----5-5-5-5----|-8-8-8-8----8-8-8-8-8-8-|-3-3-3-3----3-3-3-3----|-1-1-1-1----1-1-1-1-1-1-| 2x

   PM----|    PM----|      PM----|    PM--------|   PM----|    PM----|      PM----|    PM--------|
e|-----------------------|------------------------|-----------------------|------------------------|
B|-----------------------|------------------------|-----------------------|------------------------|
G|-----------------------|------------------------|-----------------------|------------------------|
D|-----------------------|------------------------|-----------------------|------------------------|
A|-----------------------|------------------------|-----------------------|------------------------|
D|-5-5-5-5----5-5-5-5----|-5-5-5-5----5-5-5-5-5-5-|-5-5-5-5----5-5-5-5----|-5-5-5-5----5-5-5-5-5-5-|

[Verse]

  PM---|                                           PM---|                  PM---|
e|-----------------------|------------------------|-----------------------|------------------------|
B|-----------------------|------------------------|-----------------------|------------------------|
G|-----------------------|------------------------|-----------------------|------------------------|
D|-----------------------|-------5---5-3----------|-----------------------|------------------2h0---|
A|-------5\--------------|-----------------5/-----|-------8\--------------|-------3\---------------|
D|-5-5-5-5\--------------|------------------------|-8-8-8-8\--------------|-3-3-3-3\---------------|

  PM---|                                           PM---|                  PM------|
e|-----------------------|------------------------|-----------------------|------------------------|
B|-----------------------|------------------------|-----------------------|------------------------|
G|-----------------------|------------------------|-----------------------|------------------------|
D|-----------------------|-------5---5-3----------|-----------------------|------------------------|
A|-------5\--------------|-----------------5/-----|-------8\--------------|----------10\----11\----|
D|-5-5-5-5\--------------|------------------------|-8-8-8-8\--------------|-10-10-10-10\----11\----|

  PM---|                                           PM---|                  PM---|
e|-----------------------|------------------------|-----------------------|------------------------|
B|-----------------------|------------------------|-----------------------|------------------------|
G|-----------------------|------------------------|-----------------------|------------------------|
D|-----------------------|-------5---5-3----------|-----------------------|------------------2h0---|
A|-------5\--------------|-----------------5/-----|-------8\--------------|-------3\---------------|
D|-5-5-5-5\--------------|------------------------|-8-8-8-8\--------------|-3-3-3-3\---------------|

  PM---|                                           PM---|                  PM---------------------|
e|-----------------------|------------------------|-----------------------|------------------------|
B|-----------------------|------------------------|-----------------------|------------------------|
G|-----------------------|------------------------|-----------------------|------------------------|
D|-----------------------|-------5---5-3----------|-----------------------|------------------------|
A|-------5\--------------|-----------------5/-----|-------8\--------------|-10--10--10--10--10--10-|
D|-5-5-5-5\--------------|------------------------|-8-8-8-8\--------------|-10--10--10--10--10--10-|


[Chorus]

e|-----------------------|------------------------|-----------------------|------------------------|
B|-----------------------|------------------------|-----------------------|------------------------|
G|-----------------------|------------------------|-----------------------|------------------------|
D|-5-5-5-5----5-5-5-5----|-8-8-8-8----8-8-8-8-8-8-|-3-3-3-3----3-3-3-3----|-1-1-1-1----1-1-1-1-1-1-|
A|-5-5-5-5----5-5-5-5----|-8-8-8-8----8-8-8-8-8-8-|-3-3-3-3----3-3-3-3----|-1-1-1-1----1-1-1-1-1-1-|
D|-5-5-5-5----5-5-5-5----|-8-8-8-8----8-8-8-8-8-8-|-3-3-3-3----3-3-3-3----|-1-1-1-1----1-1-1-1-1-1-| 4x

[Interlude]

e|-------------------------13-----|---------15-------------17-----|
B|---------15---------------------|-------------------------------|
G|-----12------12------12------12-|-----12------12------12-----12-|
D|-12--------------12-------------|-12--------------12------------|
A|--------------------------------|-------------------------------|
D|--------------------------------|-------------------------------|

e|--------------------------------|
B|---------15--------------15-----|
G|-----12------12------12------12-|
D|-12--------------12-------------|
A|--------------------------------|
D|--------------------------------| 8x

e|-----------------------|------------------------|-----------------------|------------------------|
B|-----------------------|------------------------|-----------------------|------------------------|
G|-----------------------|------------------------|-----------------------|------------------------|
D|-----------------------|------------------------|-----------------------|------------------------|
A|-10---------8----------|-6----------5-----------|-3----------1----------|--0---------5-----------|
D|-----------------------|------------------------|-----------------------|------------------------| 2x

[Chorus]

e|-----------------------|------------------------|-----------------------|------------------------|
B|-----------------------|------------------------|-----------------------|------------------------|
G|-----------------------|------------------------|-----------------------|------------------------|
D|-5-5-5-5----5-5-5-5----|-8-8-8-8----8-8-8-8-8-8-|-3-3-3-3----3-3-3-3----|-1-1-1-1----1-1-1-1-1-1-|
A|-5-5-5-5----5-5-5-5----|-8-8-8-8----8-8-8-8-8-8-|-3-3-3-3----3-3-3-3----|-1-1-1-1----1-1-1-1-1-1-|
D|-5-5-5-5----5-5-5-5----|-8-8-8-8----8-8-8-8-8-8-|-3-3-3-3----3-3-3-3----|-1-1-1-1----1-1-1-1-1-1-| 4x


[Outro]

   PM----|    PM----|      PM----|    PM--------|   PM----|    PM----|
e|-----------------------|------------------------|-----------------------|
B|-----------------------|------------------------|-----------------------|
G|-----------------------|------------------------|-----------------------|
D|-----------------------|------------------------|-----------------------|
A|-----------------------|------------------------|-----------------------|
D|-5-5-5-5----5-5-5-5----|-5-5-5-5----5-5-5-5-5-5-|-5-5-5-5----5-5-5-5----|

   PM----|    PM----|
e|-----------------------|
B|-----------------------|
G|-----------------------|
D|-----------------------|
A|-----------------------|
D|-5-5-5-5----5-5-5-5----| 4x


************************************

| /   Slide up
| \   Slide down
| PM  Palm mute

************************************

            
            
Suggest correction
Creating personal tab
Creating personal tab
You can edit any tab online and save it as your Personal.

You can edit, replace or remove any tab part or add personal notes – all changes will be seen only by you.

Personal tabs can be accessed anytime from any device, even offline.
Learn more »
comments
print report bad tab
guest
You may want to rate the tab now too:
select rating
Wanna post a correction for this tab? Suggest correction