Oops, an error
Loading. Please wait.

The Reckoning tab

version 1
version 1

Whole song

Interactive

229 views 1 this week
no commentswrite comment
1 2 3 4 5
2 more votes to show rating
add to favorites
×
Save as Personal and add changes to this tab that will be seen only by you. Learn more ›
×
You can save this tab as Personal to edit and correct it or add notes. All changes will be seen only by you. Learn more »
launch autoscroll
font size
0
reset
how to read this tab
guitar tuner
edit
Autoscroll
slow
fast
+/-
esc
set tempo
stop
[Intro/Verse]
(let ring)
e|--------------------------|--------------------------|  (Clean Guitar)
B|--------4-----------4-----|--------4-----------4-----|
G|--3-----------3-----------|--4-----------4-----------|
D|-----5-----5-----5-----5--|-----5-----5-----5-----5--|
A|--------------------------|--------------------------|
D|--------------------------|--------------------------|

e|--------------------------|--------------------------|
B|--------4-----------4-----|--------4-------------3---|
G|--3-----------3-----------|--4-----------4-----5-----|
D|-----5-----5-----5-----5--|-----5-----5-----5--------|
A|--------------------------|--------------------------|
D|--------------------------|--------------------------|  (4x)

e|--------------------------|--------------------------|
B|--------4-----------4-----|--------4-----------4-----|
G|--3-----------3-----------|--4-----------4-----------|
D|-----5-----5-----5-----5--|-----5-----5-----5-----5--|
A|--------------------------|--------------------------|
D|--------------------------|--------------------------|

e|--------------------------|--------------------------|
B|--------4-----------4-----|--------6-----6-----------|
G|--3-----------3-----------|--5-----------5-----------|
D|-----1-----1-----1-----1--|-----3-----3--3-----------|
A|--------------------------|--------------------------|
D|--------------------------|--------------------------|

[Chorus]
e|--------------------------|--------------------------|  (Distortion Guitar)
B|--------------------------|--------------------------|
G|--------------------------|--------------------------|
D|--5-----------------------|--1-----------3-----------|
A|--5-----------------------|--1-----------3-----------|
D|--5-----------------------|--1-----------3-----------|

e|--------------------------|--------------------------|  (Clean Guitar)
B|--------------------------|--------------------------|
G|-----------2--3--2--------|---------2--3-------2--3--|                                (3x)
D|--------3-----------3-----|------3----------3--------|
A|-----1--------------------|--------------------------|
D|--3-----------------------|--------------------------|

e|--7--7--7--7--7--7--7--7--|--3--3--3--3--5--5--5--5--|  (Acoustic Guitar)
B|--8--8--8--8--8--8--8--8--|--4--4--4--4--6--6--6--6--|
G|--7--7--7--7--7--7--7--7--|--3--3--3--3--5--5--5--5--|
D|--5--5--5--5--5--5--5--5--|--1--1--1--1--3--3--3--3--|
A|--5--5--5--5--5--5--5--5--|--1--1--1--1--3--3--3--3--|
D|--5--5--5--5--5--5--5--5--|--1--1--1--1--3--3--3--3--|





e|--------------------------|--------------------------|--------------------------|  (Distortion Guitar)
B|--------------------------|--------------------------|--------------------------|
G|--------------------------|--------------------------|--------------------------|
D|--1--1--1--1--1--1--1--1--|--3--3--3--3--3--3--3--3--|--5-----------------------|
A|--1--1--1--1--1--1--1--1--|--3--3--3--3--3--3--3--3--|--5-----------------------|
D|--1--1--1--1--1--1--1--1--|--3--3--3--3--3--3--3--3--|--5-----------------------|

e|--------------------------|--------------------------|--3-----------------------|  (Clean Guitar)
B|--------------------------|--------------------------|--3-----------------------|
G|---------2--3-------2--3--|---------2--3-------2--3--|--0-----------------------|
D|------3----------3--------|------3----------3--------|--0-----------------------|
A|--------------------------|--------------------------|--3-----------------------|
D|--------------------------|--------------------------|--3-----------------------|

e|--3--3--3--3--3--3--3--3--|--5--5--5--5--5--5--5--5--|--7-----------------------|  (Acoustic Guitar)
B|--4--4--4--4--4--4--4--4--|--6--6--6--6--6--6--6--6--|--8-----------------------|
G|--3--3--3--3--3--3--3--3--|--5--5--5--5--5--5--5--5--|--7-----------------------|
D|--1--1--1--1--1--1--1--1--|--3--3--3--3--3--3--3--3--|--5-----------------------|
A|--1--1--1--1--1--1--1--1--|--3--3--3--3--3--3--3--3--|--5-----------------------|
D|--1--1--1--1--1--1--1--1--|--3--3--3--3--3--3--3--3--|--5-----------------------|

[Verse]
(let ring)
e|--------------------------|--------------------------|
B|--------4-----------4-----|--------4-------------3---|
G|--3-----------3-----------|--4-----------4-----5-----|
D|-----5-----5-----5-----5--|-----5-----5-----5--------|
A|--------------------------|--------------------------|
D|--------------------------|--------------------------|  (3x)

e|--------------------------|--------------------------|
B|--------4-----------4-----|--------4-----------4-----|
G|--3-----------3-----------|--4-----------4-----------|
D|-----5-----5-----5-----5--|-----5-----5-----5-----5--|
A|--------------------------|--------------------------|
D|--------------------------|--------------------------|

e|--------------------------|--------------------------|
B|--------4-----------4-----|--------6-----6-----------|
G|--3-----------3-----------|--5-----------5-----------|
D|-----1-----1-----1-----1--|-----3-----3--3-----------|
A|--------------------------|--------------------------|
D|--------------------------|--------------------------|

[Chorus]
e|--------------------------|--------------------------|  (Distortion Guitar)
B|--------------------------|--------------------------|
G|--------------------------|--------------------------|
D|--5-----------------------|--1-----------3-----------|
A|--5-----------------------|--1-----------3-----------|
D|--5-----------------------|--1-----------3-----------|

e|--------------------------|--------------------------|  (Clean Guitar)
B|--------------------------|--------------------------|
G|-----------2--3--2--------|---------2--3-------2--3--|                                   (3x)
D|--------3-----------3-----|------3----------3--------|
A|-----1--------------------|--------------------------|
D|--3-----------------------|--------------------------|

e|--7--7--7--7--7--7--7--7--|--3--3--3--3--5--5--5--5--|  (Acoustic Guitar)
B|--8--8--8--8--8--8--8--8--|--4--4--4--4--6--6--6--6--|
G|--7--7--7--7--7--7--7--7--|--3--3--3--3--5--5--5--5--|
D|--5--5--5--5--5--5--5--5--|--1--1--1--1--3--3--3--3--|
A|--5--5--5--5--5--5--5--5--|--1--1--1--1--3--3--3--3--|
D|--5--5--5--5--5--5--5--5--|--1--1--1--1--3--3--3--3--|





e|--------------------------|--------------------------|  (Distortion Guitar)
B|--------------------------|--------------------------|
G|--------------------------|--------------------------|
D|--1--1--1--1--1--1--1--1--|--3--3--3--3--3--3--3--3--|
A|--1--1--1--1--1--1--1--1--|--3--3--3--3--3--3--3--3--|
D|--1--1--1--1--1--1--1--1--|--3--3--3--3--3--3--3--3--|

e|--------------------------|--------------------------|  (Clean Guitar)
B|--------------------------|--------------------------|
G|---------2--3-------2--3--|---------2--3-------2--3--|
D|------3----------3--------|------3----------3--------|
A|--------------------------|--------------------------|
D|--------------------------|--------------------------|

e|--3--3--3--3--3--3--3--3--|--5--5--5--5--5--5--5--5--|  (Acoustic Guitar)
B|--4--4--4--4--4--4--4--4--|--6--6--6--6--6--6--6--6--|
G|--3--3--3--3--3--3--3--3--|--5--5--5--5--5--5--5--5--|
D|--1--1--1--1--1--1--1--1--|--3--3--3--3--3--3--3--3--|
A|--1--1--1--1--1--1--1--1--|--3--3--3--3--3--3--3--3--|
D|--1--1--1--1--1--1--1--1--|--3--3--3--3--3--3--3--3--|

[Bridge]
e|--------------------------|---------------------------|
B|--------------------------|---------------------------|
G|--------------------------|--3-----------7------------|
D|--1-----------------------|--3-----------7------------|
A|--1-----------------------|--1-----------5------------|
D|--1-----------------------|---------------------------|

e|--------------------------|---------------------------|
B|--13----------------------|--13----------10r----------|
G|---x----------------------|---x-----------x-----------|
D|--12----------------------|--12----------10r----------|
A|--------------------------|---------------------------|
D|--------------------------|---------------------------|





e|--------------------------|---------------------------|
B|--------------------------|---------------------------|
G|--3-----------------------|--7------------------------|
D|--3-----------------------|--7------------------------|
A|--1-----------------------|--5------------------------|
D|--------------------------|---------------------------|

e|--------------------------|---------------------------|
B|--8-----------------------|-/5------------------------|
G|--x-----------------------|--x------------------------|
D|--8-----------------------|-/5------------------------|
A|--------------------------|---------------------------|
D|--------------------------|---------------------------|





e|--------------------------|-------------------------------------------|
B|--------------------------|--------------------------------11---------|
G|--------------------------|------9----12----------12-10-12----12~~~~--|
D|--5-5---------5-5---------|----8---10-------12-10---------------------|
A|--5-5---------5-5---------|--6-----------10---------------------------|
D|--5-5---------5-5---------|-------------------------------------------|

e|--------------------------|-------------------------------------------|
B|--------------------------|--------------------------------11---------|
G|--------------------------|------9----12----------12-10-12----12~~~~--|
D|--------------------------|----8---10-------12-10---------------------|
A|-----24\-----------24\----|--6-----------10---------------------------|
D|-----24\-----------24\----|-------------------------------------------|

[Chorus]
e|--------------------------|--------------------------|  (Distortion Guitar)
B|--------------------------|--------------------------|
G|--------------------------|--------------------------|
D|--5-----------------------|--1-----------3-----------|
A|--5-----------------------|--1-----------3-----------|
D|--5-----------------------|--1-----------3-----------|

e|--------------------------|--------------------------|  (Clean Guitar)
B|--------------------------|--------------------------|
G|-----------2--3--2--------|---------2--3-------2--3--|                                (3x)
D|--------3-----------3-----|------3----------3--------|
A|-----1--------------------|--------------------------|
D|--3-----------------------|--------------------------|

e|--7--7--7--7--7--7--7--7--|--3--3--3--3--5--5--5--5--|  (Acoustic Guitar)
B|--8--8--8--8--8--8--8--8--|--4--4--4--4--6--6--6--6--|
G|--7--7--7--7--7--7--7--7--|--3--3--3--3--5--5--5--5--|
D|--5--5--5--5--5--5--5--5--|--1--1--1--1--3--3--3--3--|
A|--5--5--5--5--5--5--5--5--|--1--1--1--1--3--3--3--3--|
D|--5--5--5--5--5--5--5--5--|--1--1--1--1--3--3--3--3--|





e|--------------------------|--------------------------|  (Distortion Guitar)
B|--------------------------|--------------------------|
G|--------------------------|--------------------------|
D|--1--1--1--1--1--1--1--1--|--3--3--3--3--3--3--3--3--|
A|--1--1--1--1--1--1--1--1--|--3--3--3--3--3--3--3--3--|
D|--1--1--1--1--1--1--1--1--|--3--3--3--3--3--3--3--3--|

e|--------------------------|--------------------------|  (Clean Guitar)
B|--------------------------|--------------------------|
G|---------2--3-------2--3--|---------2--3-------2--3--|
D|------3----------3--------|------3----------3--------|
A|--------------------------|--------------------------|
D|--------------------------|--------------------------|

e|--3--3--3--3--3--3--3--3--|--5--5--5--5--5--5--5--5--|  (Acoustic Guitar)
B|--4--4--4--4--4--4--4--4--|--6--6--6--6--6--6--6--6--|
G|--3--3--3--3--3--3--3--3--|--5--5--5--5--5--5--5--5--|
D|--1--1--1--1--1--1--1--1--|--3--3--3--3--3--3--3--3--|
A|--1--1--1--1--1--1--1--1--|--3--3--3--3--3--3--3--3--|
D|--1--1--1--1--1--1--1--1--|--3--3--3--3--3--3--3--3--|

[Chorus]
e|--------------------------|--------------------------|  (Distortion Guitar)
B|--------------------------|--------------------------|
G|--------------------------|--------------------------|
D|--5--5--5--5--5--5--5--5--|--1--1--1--1--3--3--3--3--|
A|--5--5--5--5--5--5--5--5--|--1--1--1--1--3--3--3--3--|
D|--5--5--5--5--5--5--5--5--|--1--1--1--1--3--3--3--3--|

e|----------------------------------------|------------------------------------------|  (Distortion Guitar) 
B|------18------------18-------------18---|------18------------18--------------------|
G|-------------19------------19--------19-|-------------19------------19-------18-19-|
D|-15-17--15-17--15-17--15-17---15-17-----|-15-17--15-17--15-17--15-17---15-17-------|
A|----------------------------------------|------------------------------------------|
D|----------------------------------------|------------------------------------------|

e|--------------------------|--------------------------|  (Clean Guitar)
B|--------------------------|--------------------------|
G|-----------2--3--2--------|---------2--3-------2--3--|            (3x)
D|--------3-----------3-----|------3----------3--------|
A|-----1--------------------|--------------------------|
D|--3-----------------------|--------------------------|

e|--7--7--7--7--7--7--7--7--|--3--3--3--3--5--5--5--5--|  (Acoustic Guitar)
B|--8--8--8--8--8--8--8--8--|--4--4--4--4--6--6--6--6--|
G|--7--7--7--7--7--7--7--7--|--3--3--3--3--5--5--5--5--|
D|--5--5--5--5--5--5--5--5--|--1--1--1--1--3--3--3--3--|
A|--5--5--5--5--5--5--5--5--|--1--1--1--1--3--3--3--3--|
D|--5--5--5--5--5--5--5--5--|--1--1--1--1--3--3--3--3--|





e|--------------------------|--------------------------|--------------------------|  (Distortion Guitar)
B|--------------------------|--------------------------|--------------------------|
G|--------------------------|--------------------------|--------------------------|
D|--5--5--5--5--5--5--5--5--|--1--1--1--1--3--3--3--3--|--5-----------------------|
A|--5--5--5--5--5--5--5--5--|--1--1--1--1--3--3--3--3--|--5-----------------------|
D|--5--5--5--5--5--5--5--5--|--1--1--1--1--3--3--3--3--|--5-----------------------|
                                                                                           (Distortion Guitar)
e|----------------------------------------|------------------------------------------|-----------------------|
B|------18------------18-------------18---|------18------------18--------------------|-----------------------|
G|-------------19------------19--------19-|-------------19------------19-------18-19-|-----------------------|
D|-15-17--15-17--15-17--15-17---15-17-----|-15-17--15-17--15-17--15-17---15-17-------|-17--------------------|
A|----------------------------------------|------------------------------------------|-----------------------|
D|----------------------------------------|------------------------------------------|-----------------------|

e|--------------------------|--------------------------|  (Clean Guitar)
B|--------------------------|--------------------------|
G|---------2--3-------2--3--|---------2--3-------2--3--|
D|------3----------3--------|------3----------3--------|
A|--------------------------|--------------------------|
D|--------------------------|--------------------------|

e|--7--7--7--7--7--7--7--7--|--3--3--3--3--5--5--5--5--|--8------------------------|  (Acoustic Guitar)
B|--8--8--8--8--8--8--8--8--|--4--4--4--4--6--6--6--6--|--8------------------------|
G|--7--7--7--7--7--7--7--7--|--3--3--3--3--5--5--5--5--|--7------------------------|
D|--5--5--5--5--5--5--5--5--|--1--1--1--1--3--3--3--3--|--5------------------------|
A|--5--5--5--5--5--5--5--5--|--1--1--1--1--3--3--3--3--|--5------------------------|
D|--5--5--5--5--5--5--5--5--|--1--1--1--1--3--3--3--3--|--5------------------------|


************************************

| r  Release
| x  Dead note
| /  Slide up
| ~  Vibrato
| \  Slide down

************************************

            
            
Suggest correction
Creating personal tab
Creating personal tab
You can edit any tab online and save it as your Personal.

You can edit, replace or remove any tab part or add personal notes – all changes will be seen only by you.

Personal tabs can be accessed anytime from any device, even offline.
Learn more »
Give kudos to tab author, rate the tab!
1 2 3 4 5
comments
print report bad tab
guest
You may want to rate the tab now too:
select rating
Wanna post a correction for this tab? Suggest correction