Oops, an error
Loading. Please wait.

You Call Me A Bitch Like Its A Bad Thing Bass Tab

version 1
version 1

Whole song

Interactive

1,854 views 1 this week
no commentswrite comment
1 2 3 4 5
accurate
x 2
add to favorites
launch autoscroll
font size
0
reset
guitar tuner
Tab Pro tools
  • play this tab
  • loop segment
  • change instrument
  • show fretboard
  • metronome
Autoscroll
slow
fast
+/-
esc
set tempo
stop
Contributor
Difficulty
Tuning
novice
D A D G B E
Intro (0:07)
G|-----------------------------------------|
D|-----------------------------------------|
A|-5---------------------------------------|
D|---66-33-55-66-000----0-3/560----0-3/560-|x1

Verse
G|-----------------------------------------|
D|-----------------------------------------|
A|-5---------------------------------------|
D|---66-33-55-66-000----0-3/560----0-3/560-|x2

Pre-Chorus (0:31)
G|--------------------------------------|------------------------------|
D|--------------------------------------|------------------------------|
A|-66666666-66666666--------------------|-66666666-66666666-0000000000-|
D|-------------------0-3/560----0-3/560-|------------------------------|

Chorus (0:45)
G|-------------------------------------|-------------------------------------|
D|-------------------------------------|-------------------------------------|
A|----------11111111--------0-11110000-|----------11111111-------------------|
D|-00000000----------3333333-----------|-00000000----------33333333-55557777-|

G|---------------------------|
D|---------------------------|
A|---------------------------|
D|-33300220-0~00~-333002200~-|

- Intro
- Verse
- Pre-Chorus
- Chorus

Bridge
G|-------------------------------------|
D|-------------------------------------|
A|-22222222----------55555555-00001111-|
D|----------55555555-------------------|

G|-------------------------------------------------------|
D|-------------------------------------------------------|
A|-22222222----------------------------------------------|
D|----------55555555-22222222-44444444-55555555-77777777-|

Chorus
G|-------------------|-------------------------------------|
D|-------------------|-------------------------------------|
A|--------0-11110000-|----------11111111-------------------|
D|-3333333-----------|-00000000----------33333333-55557777-|

G|---------------------------|
D|---------------------------|
A|---------------------------|
D|-33300220-0~00~-333002200~-|

- Intro



~ Jack Mills
comments
We did not receive enough feedback on this tab! Please rate:
print report bad tab
1 2 3 4 5
I want to post or [tab]
guest
You may want to rate the tab now too:
select rating
Please do not post tabs as comments. Select "correction" instead!