Oops, an error
Loading. Please wait.

You Call Me A Bitch Like Its A Bad Thing tab

version 2
version 2

Whole song

Interactive

256 views 1 this week
no commentswrite comment
1 2 3 4 5
1 last vote to show rating
add to favorites
×
Save as Personal and add changes to this tab that will be seen only by you. Learn more ›
×
You can save this tab as Personal to edit and correct it or add notes. All changes will be seen only by you. Learn more »
launch autoscroll
font size
0
reset
how to read this tab
guitar tuner
edit
Autoscroll
slow
fast
+/-
esc
set tempo
stop
Tuning: Drop D (DADGBe)

        Legend
 + + + + + + + + + + + +
+                       +
+    "=pinch harmonic   + 
+    \=slide down       +
+    /=slide up         +
+    .=palm mute        +
+    p=pull-off         +
+    h=hammer-on        +
+    b=bend             +
+    pb=pre-bend        +
+    wd=dive (whammy)   +
+    v=vibrato          +
+                       +
 + + + + + + + + + + + +


IMPORTANT NOTES:
The natural harmonics on the 2nd and the 3rd fret are not played exactly on the fret. The harmony on the
"2nd" fret is maybe more like 2.7 frets away from the nut, and the 3rd fret harmony 3.3 frets.

Intro

(both guitars)
e|---------------------------------------------------------------------------------------|
B|---------------------------------------------------------------------------------------|
G|-7-------------------------------------------------------------------------------------|
D|-7-6-6-3-3-5-5-6-6-0-0-----------------0-3-5-6-----------------0-3-5-6-----------------|
A|-5-6-6-3-3-5-5-6-6-0-0-----------------0-3-5-6-----------------0-3-5-6-----------------|
D|---6-6-3-3-5-5-6-6-0-0-(5)-(4)-(3)-(2)-0-3-5-6-(5)-(4)-(3)-(2)-0-3-5-6-(5)-(4)-(3)-(2)-|

e|-----------------------------------------------------------------------------------------|
B|-----------------------------------------------------------------------------------------|
G|-7---------------------------------------------------------------------------------------|
D|-7-6-6-3-3-5-5-6-6-0-0-----------------0-3-5-6-----------------0-3-5-6-------------------|
A|-5-6-6-3-3-5-5-6-6-0-0-----------------0-3-5-6-----------------0-3-5-6-------------------|
D|---6-6-3-3-5-5-6-6-0-0-(5)-(4)-(3)-(2)-0-3-5-6-(5)-(4)-(3)-(2)-0-3-5-6-(5)-(4)-(3)-(2)-0-|

Verse

(one guitar only)
e|------------------------------------------------------------------------|
B|------------------------------------------------------------------------|
G|------------------------------------------------------------------------|
D|-7----------------------------------------------------------------------|
A|-5-6-6-3-3-5-5-6-6-0-0-0------------------------------------------------|
D|---6-6-3-3-5-5-6-6-0-0-0---------------0-3-5-6-0--------------0-3-5-6-0-|(x2)
     . . . . . . . . . . .

(both guitars)
e|---------------------------------------------------------------------------------|
B|---------------------------------------------------------------------------------|
G|-8-8-8-8-8-8-8-8-8-8-8-8-8-8-8---------------------------------------------------|
D|-8-8-8-8-8-8-8-8-8-8-8-8-8-8-8-----------------0-3-5-6-----------------0-3-5-6-0-|
A|-6-6-6-6-6-6-6-6-6-6-6-6-6-6-6-----------------0-3-5-6-----------------0-3-5-6-0-|
D|-------------------------------(5)-(4)-(3)-(2)-0-3-5-6-(5)-(4)-(3)-(2)-0-3-5-6-0-|

(Only lead plays the bend at the end)
e|---------------------------------------------------|-10----|
B|---------------------------------------------------|-13b15-|
G|-8-8-8-8-8-8-8-8-8-8-8-8-8-8-8-8-------------------|-------|
D|-8-8-8-8-8-8-8-8-8-8-8-8-8-8-8-8-------------7-7-7-|-------|
A|-6-6-6-6-6-6-6-6-6-6-6-6-6-6-6-6-7-7-7-7-7-7-7-7-7-|-------|
D|---------------------------------7-7-7-7-7-7-7-7-7-|-------|
                                   . . . . . .   

Chorus

Rythm guitar:
e|-------------------------------------------------------------------|
B|-------------------------------------------------------------------|
G|-----------------------------------------------------------------–-|
D|-0-0-0-0-0-0-0-0-0-8-8-8-8-8-8-8-8-5-5-5-5-5-5-5-5-8-8-8-8-7-7-7-7-|
A|-0-0-0-0-0-0-0-0-0-8-8-8-8-8-8-8-8-5-5-5-5-5-5-5-5-8-8-8-8-7-7-7-7-|
D|-0-0-0-0-0-0-0-0-0-8-8-8-8-8-8-8-8-5-5-5-5-5-5-5-5-8-8-8-8-7-7-7-7-|

e|-------------------------------------------------------------------|
B|-------------------------------------------------------------------|
G|---------------------------------------------------5-5-5-5-6-6-6-6-|
D|-0-0-0-0-0-0-0-0-0-8-8-8-8-8-8-8-8-3-3-3-3-3-3-3-3-5-5-5-5-6-6-6-6-|
A|-0-0-0-0-0-0-0-0-0-8-8-8-8-8-8-8-8-3-3-3-3-3-3-3-3-3-3-3-3-4-4-4-4-|
D|-0-0-0-0-0-0-0-0-0-8-8-8-8-8-8-8-8-3-3-3-3-3-3-3-3-----------------|

e|----------------------------------------|
B|----------------------------------------|
G|-7--7--5--5--3--3--5--5--7--7--5--5--3--|
D|-7--7--5--5--3--3--5--5--7--7--5--5--3--|
A|-5--5--3--3--1--1--3--3--5--5--3--3--1--|
D|----------------------------------------|

Lead guitar:
e|-10-10-10-10-10-10-10-10-6-6-6-6-6-6-6-6-5-5-5-5--\3-3-3-6-6-6-6-5-5-5-5-|
B|-10-10-10-10-10-10-10-10-6-6-6-6-6-6-6-6-5-5-5-5--\3-3-3-6-6-6-6-5-5-5-5-|
G|-10-10-10-10-10-10-10-10-7-7-7-7-7-7-7-7-6-6-6-6--\3-3-3-7-7-7-7-6-6-6-6-|
D|-12-12-12-12-12-12-12-12-8-8-8-8-8-8-8-8-7-7-7-7--\5-5-5-8-8-8-8-7-7-7-7-|
A|-------------------------------------------------------------------------|
D|-------------------------------------------------------------------------|

e|-13-13-13-12-12-12-12-12-10-10-10--------------------------------------------------------|
B|-x--x--x--x--x--x--x--x--x--x--x--10-10-10-10-10-11-11-11-10-10-10-10-10-8-8-8-6-6-6-6-6-|
G|-10-10-10-9--9--9--9--9--7--7--7--x--x--x--x--x--x--x--x--x--x--x--x--x--x-x-x-x-x-x-x-x-|
D|----------------------------------7--7--7--7--7--8--8--8--7--7--7--7--7--5-5-5-3-3-3-3-3-|
A|-----------------------------------------------------------------------------------------|
D|-----------------------------------------------------------------------------------------|

(Last bend is longer than the other 12)
e|-------------------------|    |-------|
B|-13b15-13b15-13b15-13b15-|    |-13b15-|
G|-------------------------|    |-------|
D|-------------------------|    |-------|
A|-------------------------|    |-------|
D|-------------------------|(x3)|-------|

Bridge

Rhythm guitar:
e|-----------------------------------------------------------------------------------------|
B|-----------------------------------------------------------------------------------------|
G|-7---------------------------------------------------------------------------------------|
D|-7-6-6-3-3-5-5-6-6-0-0-----------------0-3-5-6-----------------0-3-5-6-------------------|
A|-5-6-6-3-3-5-5-6-6-0-0-----------------0-3-5-6-----------------0-3-5-6-------------------|
D|---6-6-3-3-5-5-6-6-0-0-(5)-(4)-(3)-(2)-0-3-5-6-(5)-(4)-(3)-(2)-0-3-5-6-(5)-(4)-(3)-(2)-0-|

Lead Guitar:

e|---------------------------------------------------------------|
B|-13b15-13pb15-13pb15-13b15-13b15-13b15-13pb15b13---10----------|
G|---------------------------------------------------12b14--"12v-|
D|---------------------------------------------------------------|
A|---------------------------------------------------------------|
D|---------------------------------------------------------------|


Verse

Rhythm guitar:
e|------------------------------------------------------------------------|
B|------------------------------------------------------------------------|
G|------------------------------------------------------------------------|
D|-7----------------------------------------------------------------------|
A|-5-6-6-3-3-5-5-6-6-0-0-0------------------------------------------------|
D|---6-6-3-3-5-5-6-6-0-0-0---------------0-3-5-6-0--------------0-3-5-6-0-|(x2)
     . . . . . . . . . . .

Solo Guitar:
e|-------------------------------------------------------------------|
B|---------------------------------------10-----10-------10----------|
G|---------------------------------------12b14--12b14----12b14--"10v-
D|-------------------------------------------------------------------|
A|-------------------------------------------------------------------|
D|-------------------------------------------------------------------|

e|---------------------------------------10-----10--------------------|
B|---------------------------------------13b15--13b15----10-----------|
G|-------------------------------------------------------12b14--"10wd-|
D|--------------------------------------------------------------------|
A|--------------------------------------------------------------------|
D|--------------------------------------------------------------------|
     

Both guitars:
e|---------------------------------------------------------------------------------|
B|---------------------------------------------------------------------------------|
G|-8-8-8-8-8-8-8-8-8-8-8-8-8-8-8---------------------------------------------------|
D|-8-8-8-8-8-8-8-8-8-8-8-8-8-8-8-----------------0-3-5-6-----------------0-3-5-6-0-|
A|-6-6-6-6-6-6-6-6-6-6-6-6-6-6-6-----------------0-3-5-6-----------------0-3-5-6-0-|
D|-------------------------------(5)-(4)-(3)-(2)-0-3-5-6-(5)-(4)-(3)-(2)-0-3-5-6-0-|

(Only lead plays the bend at the end)
e|---------------------------------------------------|-10----|
B|---------------------------------------------------|-13b15-|
G|-8-8-8-8-8-8-8-8-8-8-8-8-8-8-8-8-------------------|-------|
D|-8-8-8-8-8-8-8-8-8-8-8-8-8-8-8-8-------------7-7-7-|-------|
A|-6-6-6-6-6-6-6-6-6-6-6-6-6-6-6-6-7-7-7-7-7-7-7-7-7-|-------|
D|---------------------------------7-7-7-7-7-7-7-7-7-|-------|
                                   . . . . . .   

Chorus

Rythm guitar:
e|-------------------------------------------------------------------|
B|-------------------------------------------------------------------|
G|-----------------------------------------------------------------–-|
D|-0-0-0-0-0-0-0-0-0-8-8-8-8-8-8-8-8-5-5-5-5-5-5-5-5-8-8-8-8-7-7-7-7-|
A|-0-0-0-0-0-0-0-0-0-8-8-8-8-8-8-8-8-5-5-5-5-5-5-5-5-8-8-8-8-7-7-7-7-|
D|-0-0-0-0-0-0-0-0-0-8-8-8-8-8-8-8-8-5-5-5-5-5-5-5-5-8-8-8-8-7-7-7-7-|

e|-------------------------------------------------------------------|
B|-------------------------------------------------------------------|
G|---------------------------------------------------5-5-5-5-6-6-6-6-|
D|-0-0-0-0-0-0-0-0-0-8-8-8-8-8-8-8-8-3-3-3-3-3-3-3-3-5-5-5-5-6-6-6-6-|
A|-0-0-0-0-0-0-0-0-0-8-8-8-8-8-8-8-8-3-3-3-3-3-3-3-3-3-3-3-3-4-4-4-4-|
D|-0-0-0-0-0-0-0-0-0-8-8-8-8-8-8-8-8-3-3-3-3-3-3-3-3-----------------|

e|-----------------------------------------------------|
B|-----------------------------------------------------|
G|-7--7--5--5--3--3--5--5--7--7--5--5--3-3-3-3-3-3-3-3-|
D|-7--7--5--5--3--3--5--5--7--7--5--5--3-3-3-3-3-3-3-3-|
A|-5--5--3--3--1--1--3--3--5--5--3--3--1-1-1-1-1-1-1-1-|
D|-----------------------------------------------------|

Lead guitar:
e|-10-10-10-10-10-10-10-10-6-6-6-6-6-6-6-6-5-5-5-5--\3-3-3-6-6-6-6-5-5-5-5-|
B|-10-10-10-10-10-10-10-10-6-6-6-6-6-6-6-6-5-5-5-5--\3-3-3-6-6-6-6-5-5-5-5-|
G|-10-10-10-10-10-10-10-10-7-7-7-7-7-7-7-7-6-6-6-6--\3-3-3-7-7-7-7-6-6-6-6-|
D|-12-12-12-12-12-12-12-12-8-8-8-8-8-8-8-8-7-7-7-7--\5-5-5-8-8-8-8-7-7-7-7-|
A|-------------------------------------------------------------------------|
D|-------------------------------------------------------------------------|

e|-13-13-13-12-12-12-12-12-10-10-10--------------------------------------------------------|
B|-x--x--x--x--x--x--x--x--x--x--x--10-10-10-10-10-11-11-11-10-10-10-10-10-8-8-8-6-6-6-6-6-|
G|-10-10-10-9--9--9--9--9--7--7--7--x--x--x--x--x--x--x--x--x--x--x--x--x--x-x-x-x-x-x-x-x-|
D|----------------------------------7--7--7--7--7--8--8--8--7--7--7--7--7--5-5-5-3-3-3-3-3-|
A|-----------------------------------------------------------------------------------------|
D|-----------------------------------------------------------------------------------------|


(Last bend is longer than the other 12)
e|-------------------------|    |-------|
B|-13b15-13b15-13b15-13b15-|    |-13b15-|
G|-------------------------|    |-------|
D|-------------------------|    |-------|
A|-------------------------|    |-------|
D|-------------------------|(x3)|-------|

Modulation

Rhythm guitar:
e|-----------------------------------------------------------------|
B|-----------------------------------------------------------------|
G|---------------------------------7-7-7-7-7-7-7-7-----------------|
D|-9-9-9-9-9-9-9-9-5-5-5-5-5-5-5-5-7-7-7-7-7-7-7-7-7-7-7-7-8-8-8-8-|
A|-9-9-9-9-9-9-9-9-5-5-5-5-5-5-5-5-5-5-5-5-5-5-5-5-7-7-7-7-8-8-8-8-|
D|-9-9-9-9-9-9-9-9-5-5-5-5-5-5-5-5-----------------7-7-7-7-8-8-8-8-|

e|--------------------------------------------------------------------------------------------------|
B|--------------------------------------------------------------------------------------------------|
G|--------------------------------------------------------------------------------------------------|
D|-9-9-9-9-9-9-9-9-5-5-5-5-5-5-5-5---------------------------------------------------------7-7-7-7\-|
A|-9-9-9-9-9-9-9-9-5-5-5-5-5-5-5-5-2-2-2-2-2-2-2-2-4-4-4-4-4-4-4-4-5-5-5-5-5-5-5-5-7-7-7-7-7-7-7-7\-|
D|-9-9-9-9-9-9-9-9-5-5-5-5-5-5-5-5-2-2-2-2-2-2-2-2-4-4-4-4-4-4-4-4-5-5-5-5-5-5-5-5-7-7-7-7-7-7-7-7\-|
                                   . . . . . . . . . . . . . . . . . . . . . . . . . . . .

Lead Guitar:
e|-------------------------------------------------------------------------------------------------|
B|-12-12-12-12-12-12-12-12-12-12-12-12-12-12-12-12-10-10-10-10-10-10-10-10-10-10-10-10-11-11-11-11-|
G|-x--x--x--x--x--x--x--x--x--x--x--x--x--x--x--x--x--x--x--x--x--x--x--x--x--x--x--x--x--x--x--x--|
D|-9--9--9--9--9--9--9--9--9--9--9--9--9--9--9--9--7--7--7--7--7--7--7--7--7--7--7--7--8--8--8--8--|
A|-------------------------------------------------------------------------------------------------|
D|-------------------------------------------------------------------------------------------------|

e|-------------------------------------------------|
B|-12-12-12-12-12-12-12-12-12-12-12-12-12-12-12-12-|
G|-x--x--x--x--x--x--x--x--x--x--x--x--x--x--x--x--|
D|-9--9--9--9--9--9--9--9--9--9--9--9--9--9--9--9--|
A|-------------------------------------------------|
D|-------------------------------------------------|

e|-------------------------------------------------------------------------------------------------|
B|-17-17-17-17-17-17-17-17-19-19-19-19-19-19-19-19-20-20-20-20-20-20-20-20-22-22-22-22-22-22-22-22-|
G|-x--x--x--x--x--x--x--x--x--x--x--x--x--x--x--x--x--x--x--x--x--x--x--x--x--x--x--x--x--x--x--x--|
D|-14-14-14-14-14-14-14-14-16-16-16-16-16-16-16-16-17-17-17-17-17-17-17-17-19-19-19-19-19-19-19-19-|
A|-------------------------------------------------------------------------------------------------|
D|-------------------------------------------------------------------------------------------------|

(You Call me a Bitch like it's a ba-ba-bad..)
  (THING)
e|-10----|
B|-13b15-|
G|-------|
D|-------|
A|-------|
D|-------|

Chorus

Rythm guitar:
e|---------------------------------|
B|---------------------------------|
G|---------------------------------|
D|-5-5-5-5-5-5-5-5-8-8-8-8-7-7-7-7-|
A|-5-5-5-5-5-5-5-5-8-8-8-8-7-7-7-7-|
D|-5-5-5-5-5-5-5-5-8-8-8-8-7-7-7-7-|

e|-------------------------------------------------------------------|
B|-------------------------------------------------------------------|
G|---------------------------------------------------5-5-5-5-6-6-6-6-|
D|-0-0-0-0-0-0-0-0-0-8-8-8-8-8-8-8-8-3-3-3-3-3-3-3-3-5-5-5-5-6-6-6-6-|
A|-0-0-0-0-0-0-0-0-0-8-8-8-8-8-8-8-8-3-3-3-3-3-3-3-3-3-3-3-3-4-4-4-4-|
D|-0-0-0-0-0-0-0-0-0-8-8-8-8-8-8-8-8-3-3-3-3-3-3-3-3-----------------|

e|----------------------------------------|
B|----------------------------------------|
G|-7--7--5--5--3--3--5--5--7--7--5--5--3--|
D|-7--7--5--5--3--3--5--5--7--7--5--5--3--|
A|-5--5--3--3--1--1--3--3--5--5--3--3--1--|
D|----------------------------------------|

Lead guitar:
e|-5-5-5-5-\3-3-3-6-6-6-6-5-5-5-5-|
B|-5-5-5-5-\3-3-3-6-6-6-6-5-5-5-5-|
G|-6-6-6-6-\3-3-3-7-7-7-7-6-6-6-6-|
D|-7-7-7-7-\5-5-5-8-8-8-8-7-7-7-7-|
A|--------------------------------|
D|--------------------------------|

e|-13-13-13-12-12-12-12-12-10-10-10--------------------------------------------------------|
B|-x--x--x--x--x--x--x--x--x--x--x--10-10-10-10-10-11-11-11-10-10-10-10-10-8-8-8-6-6-6-6-6-|
G|-10-10-10-9--9--9--9--9--7--7--7--x--x--x--x--x--x--x--x--x--x--x--x--x--x-x-x-x-x-x-x-x-|
D|----------------------------------7--7--7--7--7--8--8--8--7--7--7--7--7--5-5-5-3-3-3-3-3-|
A|-----------------------------------------------------------------------------------------|
D|-----------------------------------------------------------------------------------------|

(Last bend is longer than the other 11)
e|-------------------------|
B|-13b15-13b15-13b15-13b15-|
G|-------------------------|
D|-------------------------|
A|-------------------------|
D|-------------------------|(x3)

Outro

e|---------------------------------------------------------------------------------------|
B|---------------------------------------------------------------------------------------|
G|-7-------------------------------------------------------------------------------------|
D|-7-6-6-3-3-5-5-6-6-0-0-----------------0-3-5-6-----------------0-3-5-6-----------------|
A|-5-6-6-3-3-5-5-6-6-0-0-----------------0-3-5-6-----------------0-3-5-6-----------------|
D|---6-6-3-3-5-5-6-6-0-0-(5)-(4)-(3)-(2)-0-3-5-6-(5)-(4)-(3)-(2)-0-3-5-6-(5)-(4)-(3)-(2)-|

e|-----------------------------------------------------------------------|
B|-----------------------------------------------------------------------|
G|-7---------------------------------------------------------------------|
D|-7-6-6-3-3-5-5-6-6-0-0-----------------0-3-5-6-----------------0-3-5-6-|
A|-5-6-6-3-3-5-5-6-6-0-0-----------------0-3-5-6-----------------0-3-5-6-|
D|---6-6-3-3-5-5-6-6-0-0-(5)-(4)-(3)-(2)-0-3-5-6-(5)-(4)-(3)-(2)-0-3-5-6-|

Lead Guitar:
e|-----------------------------------------------------------------------|
B|-13b15-13b15-13b15-13b15-13b15b13--------------------------------------|
G|----------------------------------12b14-12b14-12b14---14p10-"12v--9b10-|
D|-----------------------------------------------------------------------|
A|-----------------------------------------------------------------------|
D|-----------------------------------------------------------------------|

e|-----------------------------------------------------------------|
B|-13b15-13b15-13b15-13b15---15b17-15b17-15b17--/18\---/20\---/22\-|
G|-----------------------------------------------------------------|
D|-----------------------------------------------------------------|
A|-----------------------------------------------------------------|
D|-----------------------------------------------------------------|

            
            
Suggest correction
Creating personal tab
Creating personal tab
You can edit any tab online and save it as your Personal.

You can edit, replace or remove any tab part or add personal notes – all changes will be seen only by you.

Personal tabs can be accessed anytime from any device, even offline.
Learn more »
Give kudos to tab author, rate the tab!
1 2 3 4 5
comments
print report bad tab
guest
You may want to rate the tab now too:
select rating
Wanna post a correction for this tab? Suggest correction