Oops, an error
Loading. Please wait.

Call Me In The Afternoon intro tab

version 1
version 1

Intro

Whole song

22,799 views 42 this week
3 commentsread comments
1 2 3 4 5
x 13
add to favorites
×
Save as Personal and add changes to this tab that will be seen only by you. Learn more ›
×
You can save this tab as Personal to edit and correct it or add notes. All changes will be seen only by you. Learn more »
launch autoscroll
font size
0
reset
how to read this tab
guitar tuner
edit
Autoscroll
slow
fast
+/-
esc
set tempo
stop
Capo on the sixth fret.
The tab is relative to the capo. 

[Intro/Verses]

e|-------------------------------|
B|----0-----0-----0-------0h1p0--|
G|--0-----0-----0-----0---------0| Repeat
D|2-----0------------------------|   x7
A|------------3------------------|
E|-------------------------------|

e|--------------------3----------|
B|----0-----0-----0-------0h1p0--|
G|--0-----0-----0---------------0| 
D|2-----0------------------------|   
A|------------3------------------|
E|-------------------------------|

For the part where it says, "Call me in the afternoon.."

e|-------------------------------|
B|----0-----0-----0-------0h1p0--|
G|--0-----0-----0-----0---------0| 
D|2-----0------------------------|   
A|------------3------------------|
E|-------------------------------|

e|--------------------3----------|
B|----0-----0-----0-------0h1p0--|
G|--0-----0-----0---------------0| 
D|2-----0------------------------|   
A|------------3------------------|
E|-------------------------------|



************************************

| h  Hammer-on
| p  Pull-off 

************************************

            
            
Suggest correction
Creating personal tab
Creating personal tab
You can edit any tab online and save it as your Personal.

You can edit, replace or remove any tab part or add personal notes – all changes will be seen only by you.

Personal tabs can be accessed anytime from any device, even offline.
Learn more »
comments
print report bad tab
3 comments total.
0 reply
Tricketts 10 Jul 26, 2014 09:09 AM, edited at 04:54 pm

Nice tab! There's a part at the end of the song that goes something like this (relative to the cappo)... [I'm going to try and learn the interlude part of the song as well] :]e|---7---5---3---3---3---3-------|B|-------------------------------|G|-------------------------------| D|-------------------------------| A|-7---7---5---3---3---3---3-----|E|-------------------------------|e|---7---10---3---3---3---3------|B|-------------------------------|G|-------------------------------| D|-------------------------------| A|-7---7---10---3---3---3---3----|E|-------------------------------|

0 reply
Tricketts 10 Jul 26, 2014 12:57 PM

e|---7---5---3---3---3---3-------|
B|-------------------------------|
G|-------------------------------|
D|-------------------------------|
A|-7---7---5---3---3---3---3-----|
E|-------------------------------|

e|---7---10---3---3---3---3------|
B|-------------------------------|
G|-------------------------------|
D|-------------------------------|
A|-7---7---10---3---3---3---3----|
E|-------------------------------|

Sorry, this was the ending part I mentioned (relative to the cappo)

guest
You may want to rate the tab now too:
select rating
Wanna post a correction for this tab? Suggest correction