Oops, an error
Loading. Please wait.

Fire Escape tab

version 2
version 2

Whole song

  • Tabs and chords are more accurate to how Devon Por... Show more
988 views 12 this week
no commentswrite comment
1 2 3 4 5
2 more votes to show rating
add to favorites
×
Save as Personal and add changes to this tab that will be seen only by you. Learn more ›
×
You can save this tab as Personal to edit and correct it or add notes. All changes will be seen only by you. Learn more »
launch autoscroll
font size
0
reset
how to read this tab
guitar tuner
edit
Autoscroll
slow
fast
+/-
esc
set tempo
stop
Author
Difficulty
Title: Fire Escape
Artist: Half Moon Run (Portielje, Mollander, Phillips and Symonds)
Album: Dark Eyes

INTRO (play twice)
e|--8-----8---|--8-----8---|--8-----8---|
B|10----10----|10----10----|10----10----|
G|----9-----9-|----9-----9-|----9-----9-|
D|------------|------------|------------|
A|------------|------------|------------|
E|------------|------------|------------|

e|--8-----8---|--8-----8---|--8-----8---|
B|8-----8-----|8-----8---8-|------8-----|
G|----9-----9-|----9-------|9---9-----9-|
D|------------|------------|------------|
A|------------|------------|------------|
E|------------|------------|------------|

VERSE (play twice)
e|--8-----8---|--8-----8---|--8-----8---|
B|10----10----|10----10----|10----10----|
G|----9-----9-|----9-----9-|----9-----9-|
D|------------|------------|------------|
A|------------|------------|------------|
E|------------|------------|------------|
e|--8-----8---|--8-----8---|--8-----8---|
B|8-----8-----|8-----8---8-|------8-----|
G|----9-----9-|----9-------|9---9-----9-|
D|------------|------------|------------|
A|------------|------------|------------|
E|------------|------------|------------|

e|--8-----8---|--8-----8---|--8-----8---|
B|10----10----|10----10----|10----10----|
G|----9-----9-|----9-----9-|----9-----9-|
D|------------|------------|------------|
A|------------|------------|------------|
E|------------|------------|------------|
e|--8-----8---|--8-----8---|--8-----8---|
B|8-----8-----|8-----8-----|8-----8-----|
G|----9-----9-|----9-----9-|----9-----9-|
D|------------|------------|------------|
A|------------|------------|------------|
E|------------|------------|------------|

CHORUS (play twice)
e|----8-----8-|----8-----8-|----8-----8-|
B|--10----10--|--10----10--|--10----10--|
G|10----10----|10----10----|10----10----|
D|------------|------------|------------|
A|------------|------------|------------|
E|------------|------------|------------|

e|----5-----5-|----5-----7-|----7-----7-|
B|--5-----5---|--5-----8---|--8-----8---|
G|5-----5-----|5-----7-----|7-----7-----|
D|------------|------------|------------|
A|------------|------------|------------|
E|------------|------------|------------|

e|----3-----3-|----3-----3-|----3-----3-|
B|--5-----5---|--5-----5---|--5-----5---|
G|5-----5-----|5-----5-----|5-----5-----|
D|------------|------------|------------|
A|------------|------------|------------|
E|------------|------------|------------|

e|----4-----4-|----4-----4-|----4-----4-|
B|--5-----5---|--5-----5---|--5-----5---|
G|4-----4-----|4-----4-----|4-----4-----|
D|------------|------------|------------|
A|------------|------------|------------|
E|------------|------------|------------|

After this, play: 
Intro 4 times
Verse 2 times
Chorus 2 times
Intro once
Chorus 2 times

The last bar of the last time you play the Chorus is as follows:
e|----4-------|
B|--5---------|
G|4-----4-----|
D|------------|
A|------------|
E|------------|

Cheers!

            
            
Suggest correction
Creating personal tab
Creating personal tab
You can edit any tab online and save it as your Personal.

You can edit, replace or remove any tab part or add personal notes – all changes will be seen only by you.

Personal tabs can be accessed anytime from any device, even offline.
Learn more »
Give kudos to tab author, rate the tab!
1 2 3 4 5
comments
print report bad tab
guest
You may want to rate the tab now too:
select rating
Wanna post a correction for this tab? Suggest correction