Oops, an error
Loading. Please wait.

I Cant Figure Out Whats Going On chords

8,836 views 63 this week
1 commentread comment
1 2 3 4 5
x 19
add to favorites
×
Save as Personal and add changes to this tab that will be seen only by you. Learn more ›
×
You can save this tab as Personal to edit and correct it or add notes. All changes will be seen only by you. Learn more »
launch autoscroll
font size
0
reset
transpose
0
reset
simplify chords
display chords
guitar tuner
edit
Autoscroll
slow
fast
+/-
esc
set tempo
stop
Strumming
There is no strumming pattern for this song yet. and get +5 IQ
Artist: Half Moon Run
Title: I can't figure out what's going on
Album: Sun Leads Me On
Tabbed by: Spendalifetime

*Lyrics are probably a bit off, but just there for a reference. 


[Intro/Verse Tab]

A | E | D 

I heard it pays in space

e|---------------------------------|
B|---------------------------------|
G|----6---6---6---6---6---6---6---4| 
D|---------------------------------| 
A|--0---0---0---0---0---0---0---0--|
E|---------------------------------|(x2) 

To be on your back again

e|-----------------------------------------------------------------|
B|-----------------------------------------------------------------|
G|-----------------------------------------------------------------|
D|----6----6---6---6---6---6---6---7--9---9---9---9---9---9---9---9| 
A|-----------------------------------------------------------------| 
E|--0---0---0---0---0---0---0---0---0---0---0---0---0---0---0---0--|

To poison all your friends

e|-------------------------------------------------------------------|
B|------7---7---7---7---7---7---7---5---5---5---5---5---5---5---5---5|
G|-------------------------------------------------------------------|
D|----0---0---0---0---0---0---0---0---0---0---0---0---0---0---0---0--|
A|-------------------------------------------------------------------|
E|-------------------------------------------------------------------| 

Repeat above then play this variation before going into the Bridge

e|--------------------------------------------------------------------
B|--------------------------------------------------------------------
G|----6---6---6---6---6---6---6---4---6---6---6---7---6---4---6---6--- 
D|--------------------------------------------------------------------
A|--0---0---0---0---0---0---0---0---0---0---0---0---0---0---0---0----=
E|--------------------------------------------------------------------

[Verse 1]

(Play riff above over verse or chords instead)

A                      E                          D / Dsus2                 A
  I heard it pays in space. To be on your back again. To poison all your friends.
A                     E                                    D / Dsus2                     A
  And if you did it today, you could have gold beyond your means. Get old but live the dream. 


[Bridge]

Bm | Bm | G | F#m | F#m | A | A |


[Chorus]

D               C#m             Bm/D .... Hold.... Bm           G                F#m                A
Time it weighs heavy on your bedroom wall........Time to rearrange the little lines i've drawn.....

   D         C#m             Bm/D                                    A
So I can't figure out whats going on....when your on your back again. 


[Verse 2]

A                       E                           D / Dsus2                 A
.....oh what a perfect day....to take what you can get....and live without regret. 
                    E                              D / Dsus2                      A
but in a symbol of hate, the blueprints that you leave. and crush us til' we're free. 


[Bridge]

Bm | Bm | G | F#m | F#m | A | A |


[Chorus]

D               C#m             Bm/D .... Hold.... Bm           G                F#m                A
Time it weighs heavy on your bedroom wall........Time to rearrange the little lines i've drawn.....

   D         C#m             Bm/D                                    A
So I can't figure out whats going on....when your on your back again. 


[Solo]

A | E | D | A 


[Outro]

                      E                       D                           A
I heard it pays in space to be on your back again...to poison all your friends.

            
            
Suggest correction
Creating personal tab
Creating personal tab
You can edit any tab online and save it as your Personal.

You can edit, replace or remove any tab part or add personal notes – all changes will be seen only by you.

Personal tabs can be accessed anytime from any device, even offline.
Learn more »
comments
print report bad tab
1 comment total.
+1 reply
saige_wisdom 10 Jul 29, 2016 09:56 AM

great tab! thanks for your time

guest
You may want to rate the tab now too:
select rating
Wanna post a correction for this tab? Suggest correction