Oops, an error
Loading. Please wait.

G U I L T Y chords

145 views 1 this week
no commentswrite comment
1 2 3 4 5
2 more votes to show rating
add to favorites
×
Save as Personal and add changes to this tab that will be seen only by you. Learn more ›
×
You can save this tab as Personal to edit and correct it or add notes. All changes will be seen only by you. Learn more »
launch autoscroll
font size
0
reset
transpose
0
reset
display chords
guitar tuner
edit
Autoscroll
slow
fast
+/-
esc
set tempo
stop
About this tab version
Tab and chords from the title track of the game Moon Hunters. Was this info helpful? Yes No
Strumming
There is no strumming pattern for this song yet. and get +5 IQ
" g u i l t y / Guilty Moon" 
∙ Halina Heron ∙
hlnhrn.bandcamp.com

standard tuning
(capo 3)


repeat throughout

e|---------------------------------------------------------|
B|---------------------------------------------------------|
G|------2-----2-------2-----2-------2-----2-------2-----2--|
D|---------3-------------3-------------3-------------3-----|
A|---------------------------------------------------------|
E|---1-------------1-------------1-------------1-----------|

e|---------------------------------------------------------|
B|---------------------------------------------------------|
G|-----0-----0-------0-----0-------0-----0-------0-----0---|
D|--------2-------------2-------------2-------------2------|
A|---3------------3-------------3-------------3------------|
E|---------------------------------------------------------|

e|---------------------------------------------------------|
B|---------------------------------------------------------|
G|-----2-----2-------2-----2-------2-----2-------2-----2---|
D|--------2-------------2-------------2-------------2------|
A|---0------------0-------------0-------------0------------|
E|---------------------------------------------------------|

e|---------------------------------------------------------|
B|---------------------------------------------------------|
G|------0-----0-------0-----0-------0-----0-------0-----0--|
D|---------2-------------2-------------2-------------2-----|
A|---------------------------------------------------------|
E|---0-------------0-------------0-------------0-----------|


F       C       Am      Em



F               C
with eyes cast low
             Am         Em
the shadows start to creep
        F
and we wait
        C               Am
for the next hours to pass
     Em
for these hours to match


F
          C                 Am
arriving early, or always too late
     Em                         F
soon, but not soon enough


                C
perched they fall,
          Am    
down they go
     Em
cut yourself out
F               C
and float
Am      Em


F
        C
don't you

want
    Am
to feel
           Em   
what comes after, this

F
        C
don't you

want
    Am
to feel
           Em           F
what comes after, this

C     Am     Em

            
            
Suggest correction
Creating personal tab
Creating personal tab
You can edit any tab online and save it as your Personal.

You can edit, replace or remove any tab part or add personal notes – all changes will be seen only by you.

Personal tabs can be accessed anytime from any device, even offline.
Learn more »
Give kudos to tab author, rate the tab!
1 2 3 4 5
comments
print report bad tab
guest
You may want to rate the tab now too:
select rating
Wanna post a correction for this tab? Suggest correction