Oops, an error
Loading. Please wait.

Poem chords

46 views 3 this week
no commentswrite comment
1 2 3 4 5
2 more votes to show rating
add to favorites
×
Save as Personal and add changes to this tab that will be seen only by you. Learn more ›
×
You can save this tab as Personal to edit and correct it or add notes. All changes will be seen only by you. Learn more »
launch autoscroll
font size
0
reset
transpose
0
reset
display chords
guitar tuner
edit
Autoscroll
slow
fast
+/-
esc
set tempo
stop
Author
Difficulty
Strumming
There is no strumming pattern for this song yet. and get +5 IQ
" poem "
∙ Halina Heron ∙
hlnhrn.bandcamp.com


standard tuning
capo 0

repeat until chorus

e|----------------------------------------------
B|----------------------------------------------
G|------0--------0----------0--------0----------  ( x 2 )
D|---------5--------5----------5--------5-------
A|---3--------3----------3--------3-------------
E|----------------------------------------------

e|----------------------------------------------
B|----------------------------------------------
G|------0--------0----------0--------0----------  ( x 2 )
D|---------5--------5----------5--------5-------
A|----------------------------------------------
E|---3--------3----------3--------3-------------

e|----------------------------------------------
B|----------------------------------------------
G|------0--------0----------0--------0----------  ( x 2 )
D|---------5--------5----------5--------5-------
A|----------------------------------------------
E|---5--------5----------5--------5-------------

e|----------------------------------------------
B|----------------------------------------------
G|------0--------0----------0--------0----------  ( x 2 )
D|---------0--------0----------0--------0-------
A|----------------------------------------------
E|---3--------3----------3--------3-------------


[verse]

C
pretty words
G
like soft cotton sheets
      Am
the kind
                     G
that keep you warm at night

C
if you fall
G
I will catch you
        Am
no matter how far
        G
you are

C
acid words
G
on your cotton candy dreams
        Am
that fall

through the cracks
                                G
in the palm of your hands


[chorus]
        
F
you fell so hard
                G
that your heart shattered
            F
into a million

splinters
          C     A#/Bb  
that I just can't
F
pull out

Suggest correction
Creating personal tab
Creating personal tab
You can edit any tab online and save it as your Personal.

You can edit, replace or remove any tab part or add personal notes – all changes will be seen only by you.

Personal tabs can be accessed anytime from any device, even offline.
Learn more »
Give kudos to tab author, rate the tab!
1 2 3 4 5
comments
print report bad tab
guest
You may want to rate the tab now too:
select rating
Wanna post a correction for this tab? Suggest correction