Oops, an error
Loading. Please wait.

I Cant Go For That No Can Do Chords

version 2
version 2

Whole song

Interactive

7,587 views 54 this week
1 commentread comment
1 2 3 4 5
accurate
x 4
add to favorites
launch autoscroll
font size
0
reset
transpose
0
reset
simplify chords
display chords
guitar tuner
Tab Pro tools
  • play this tab
  • loop segment
  • change instrument
  • show fretboard
  • metronome
×
Best way to learn
"I Cant Go For That No Can Do"
Autoscroll
slow
fast
+/-
esc
set tempo
stop
Contributor
Difficulty
novice
-------------------------------------------------------------------------------
                             I Can't Go For That (No Can Do) - Hall and Oates
-------------------------------------------------------------------------------
Tabbed by:Chongo
Email:seldon08@hotmail.com

Tuning:Standard (EADGBe)
Key: Cm&C(chorus)
Album: Private Eyes
Writers: Daryl Hall, John Oates, Sara Allen

Intro bass riff:(repeat through intro)
G|--------------------|-------------------||                                  
D|*--------1---1---3--|--------1---1-----*||                                  
A|*------3---3--------|------3---3-------*||                                  
E|-1--1---------------|1--1---------------||                                   

Intro Electric Piano: (Up sweep Cm and hold) (repeat)
e|-3-----||
B|--4----||
G|---5--*||
D|----5-*||
A|-------||
E|-------||

Intro Electric Guitar (Clean):(repeat through intro)

e|--------------||--------------|--------------|---------------|
B|--------------||--------------|--------------|---------------|
G|--------------||*-------------|--------------|---------------|
D|------1-1-1-1-||*3----1-1-1-1-|-5----1-1-1-1-|-3----1-1-1-1--|
A|--------------||--------------|--------------|---------------|
E|--------------||--------------|--------------|---------------|

e|---------------||
B|---------------||
G|-3------------*||
D|------1-1-1-1-*||
A|---------------||
E|---------------||

Intro: Cm7  F

Verse:
Cm7                        F   
Easy, ready, willing, overtime,
Cm7
Where does it stop,

where do you dare me
    F       
to draw the line.
Cm7
You've got the body,
                        F
now you want my soul,
Cm7
Don't even think about it,
            F    G
say no go. (Yeah)


Chorus:
C  Cmaj7        C7
I-- I 'll do anything
                 Fmaj7
that you want me to do,
    C  Cmaj7          C7
And I'll do almost anything,
                 Fmaj7
that you want me too, ooh,

    Cm7 (Guitar Intro riff)F
But I can't go for that, (No can do)
    Cm7                   F
No, I can't go for that, (No can do)
    Cm7                   F
Oh, I can't go for that, (No can do)


Verse

Chorus

Sax Solo (Verse Chords)

Chorus

Sax Solo (half verse length) (Verse Chords)


Outro:
    Cm7 (Guitar Intro riff)F
But I can't go for that, (No can do)
    Cm7                   F
No, I can't go for that, (No can do)
    Cm7                   F
Oh, I can't go for that, (No can do) (repeat) fades....



************************************

| /   slide up
| \   slide down
| h   hammer-on
| p   pull-off
| ~   vibrato
| +   harmonic
| x   Mute note
| b   Bend
| pb  Pre-bend
| br  Bend release
| pbr Pre-bend release
| brb Bend release bend

************************************
comments
print report bad tab
1 comment total.
0 reply
Chongo wrote on March 30 2012, 01:06 pm

I accidentally forgot a measure for the Intro Guitar

Correction:
Intro Electric Guitar (Clean):(repeat through intro)


e|--------------||--------------|--------------|---------------||
B|--------------||--------------|--------------|---------------||
G|--------------||*-------------|--------------|--------------*||
D|------1-1-1-1-||*3----1-1-1-1-|-5----1-1-1-1-|-3----1-1-1-1-*||
A|--------------||--------------|--------------|---------------||
E|--------------||--------------|--------------|---------------||

e|--------------|
B|--------------|
G|-3------------|
D|------1-1-1-1-|
A|--------------|
E|--------------|

I want to post or [tab]
guest
You may want to rate the tab now too:
select rating
Please do not post tabs as comments. Select "correction" instead!