Oops, an error
Loading. Please wait.

Kiss Is On My List Bass Tab

version 1
version 1

Whole song

Interactive

3,003 views 6 this week
no commentswrite comment
1 2 3 4 5
please rate
add to favorites
launch autoscroll
font size
0
reset
guitar tuner
Tab Pro tools
  • play this tab
  • loop segment
  • change instrument
  • show fretboard
  • metronome
×
Best way to learn
"Kiss Is On My List"
Autoscroll
slow
fast
+/-
esc
set tempo
stop
Contributor
Kiss Is On My List
Hall & Oates 

intro
G|-------------------------5----|
D|----------------------5-----5-|
A|--3----3----8----3------------|
E|-3----3----8----3-------------|

Verse1
G|--------------------------------|-----------------------------|----5----|
D|--------------------------------|-----------------------------|-5-----5-|
A|--3--3---3--3-------------------|------------------------3--3-|---------|
E|-3------3------3-1--1---1-1--1--|-3-4--4-4---4-6--6-6---6-----|---------|

Verse2
G|------------------------------------|
D|------------------------------------|
A|--3--3-3---3--3-3-------------------|
E|-3--------3--------3-1--1---1-1--1--|

G|----------------------------------|---------|
D|----------------------------------|---------|
A|------------------------3--3-3--3-|----3----|
E|-3-4--4-4---4-6--6-6---6----------|-3-----3-|

prechorus
G|----------------------------------------------|
D|----------------------------------------------|
A|-------------5--5-5-5----------5--5-5-5-------|
E|-0-1--1-1---1--------1--1-1---1--------1--1-1-|

G|-------------------------------------|
D|-------------------------------------|
A|--5--5-5-5---------------------------|
E|-1--------1--1-1---1-3-3-3-3-3-3-3-3-|

Chorus1
G|----------------------------|--------------------|---------------------|
D|----------------------------|--------------------|----------------5----|
G|--3--3---3--3---3--3---3--3-|--------------------|--3--3-3---3-5-----5-|
E|-3------3------3------3-----|-3-1--1---1-1---1-1-|-1-------------------|

G|------------------------------|-------------------|----------------------|
D|------------------------------|----------3--3-3---|-5------10-10h12-10---|
G|--3--3-3---3--3---3--3---3--3-|---------3---------|--3--3-------------10-|
E|-3--------3------3------3-----|-3-1--1------------|----------------------|

Verse3
G|--------------------------------|-----------------------------|----5----|
D|--------------------------------|-----------------------------|-5-----5-|
A|-3--3---3--3-3------------------|------------------------3--3-|---------|
E|-------3--------3-1--1---1-1--1-|-3-4--4-4---4-6--6-6---6-----|---------|

Verse2
G|------------------------------------|
D|------------------------------------|
A|--3--3-3---3--3-3-------------------|
E|-3--------3--------3-1--1---1-1--1--|

G|-----------------------------|---------|
D|-----------------------------|---------|
A|------------------------3--3-|----3----|
E|-3-4--4-4---4-6--6-6---6-----|-3-----3-|

Repeat prechorus

Chorus2
G|----------------------------|------------------------------------|
D|----------------------------|------------------------------------|
G|--3--3---3--3---3--3---3--3-|----------------------3--3---3-3--3-|
E|-3------3------3------3-----|-3-1--1---1-1--1-1---3--------------|

Solo 
G|------------------|-------------------|--------------------|------------------|
D|------------------|-------------------|--------------------|------------------|
A|--3--3-3---3--3-3-|--8--8-8--8-8--8-8-|-8-6--6-6--6-6--6-6-|-6-5--5-5--5------|
E|-3--------3-------|-8-----------------|--------------------|------------3-3-3-|

G|------------------|-------------------|--------------------|-----------------------------|
D|------------------|-------------------|--------------------|-----------------------------|
A|--3--3-3---3--3-3-|--8--8-8--8-8--8-8-|-8-6--6-6--6-6--6-6-|-6-5--5-5/-10-10--10--10-10\-|
E|-3--------3-------|-8-----------------|--------------------|-----------------------------|

Chorus3
G|-----------------------------------|------------------------|-------------------|
D|-----------------------------------|----------3--3-3--5-----|----12-10----------|
A|-3--3-3---3--3-3---3--3-3---3--3-3-|---------3---------3--3-|-3/-------10h12-10-|
E|---------3--------3--------3-------|-3-1--1-----------------|-------------------|

G|-----------------------------------|----------------------------------------------|
D|-----------------------------------|-----------3--3-3--3--------------------------|
A|-3--3-3---3--3-3---3--3-3---3--3-3-|----------3---------3--3-3--3/-10--10--10-10\-|
E|---------3--------3--------3-------|-3-1--1---------------------------------------|

G|-----------------------------------|
D|-----------------------------------|
A|-3--3-3---3--3-3---3--3-3---3--3-3-|
E|---------3--------3--------3-------|
comments
We did not receive enough feedback on this tab! Please rate:
print report bad tab
1 2 3 4 5
I want to post or [tab]
guest
You may want to rate the tab now too:
select rating
Please do not post tabs as comments. Select "correction" instead!