Oops, an error
Loading. Please wait.

Kiss On My List tab

466 views 9 this week
no commentswrite comment
1 2 3 4 5
3 more votes to show rating
add to favorites
×
Save as Personal and add changes to this tab that will be seen only by you. Learn more ›
×
You can save this tab as Personal to edit and correct it or add notes. All changes will be seen only by you. Learn more »
launch autoscroll
font size
0
reset
how to read this tab
guitar tuner
edit
Autoscroll
slow
fast
+/-
esc
set tempo
stop
HALL & OATES - KISS ON MY LIST (Daryl Hall & Janna Allen)


Tabbed by: David Adamec
Standard Tuning:  E-A-D-G-B-e

  This is a tab of Richard Tetta’s slick take on the Hall & Oates
classic. You can check out the video and his use of a calypso-like
rhythm in his interpretation on YouTube. Let the chords ring out
as you play.


Capo on 3rd fret, fingering shown is relative to capo


  Intro & Chorus
e|-0---0-0---0-0---0---0--|-0---0-0---0-0---0--|-0-0-0--0-0--0-0-----|
B|-2---0-0---0-0---0---0--|-5---3-3---1-1---3--|-5-5-5--3-5--3-3-----|
G|-2---4-4---2-2---4---4--|-5---4-4---0-0---4--|-2-2-2--2-2--2-2-----|
D|-2---6-6---4-4---6---6--|-5---5-5---2-2---5--|-0-0-0--0-0--0-0-----|
A|------------------------|-----------3-3------|---------------------|
E|------------------------|--------------------|---------------------|

                (this last chord repeated about 16 times)
e|-0--0-0-0----0-----------------------------------------------------|
B|-5--3-3-3----0-----------------------------------------------------|
G|-2--2-2-2----6-----------------------------------------------------|
D|-0--2-2-2----7-----------------------------------------------------|
A|-------------------------------------------------------------------|
E|-------------------------------------------------------------------|


e|------0----0-0----------------------------0----0-0-----------------|
B|------5----5-5----------------------------5----5-5-----------------|
G|------5----5-5----------------------------5----5-5-----------------|
D|------5----5-5----------------------------5----5-5-----------------|
A|-------------------------------------------------------------------|
E|-------------------------------------------------------------------|
   My friends wonder why I call you all the time.


e|-------------------------------------------------------------------|
B|----------------3--3-----3----3-3----------------------------------|
G|----------------5--5-----5----5-5----------------------------------|
D|----------------3--3-----3----3-3----------------------------------|
A|----------------5--5-----5----5-5----------------------------------|
E|-------------------------------------------------------------------|
   What can I say?


                                                     (repeat ~ 16
                                                            times) 
e|-0------0-0---------------3-----3-3--------------0-----------------|
B|-1------1-1---------------3-----3-3--------------0-----------------|
G|-2------2-2---------------4-----4-4--------------6-----------------|
D|-3------3-3---------------5-----5-5--------------7-----------------|
A|-3------3-3---------------5-----5-5--------------------------------|
E|-------------------------------------------------------------------|
   I don’t feel the need to give such secrets away.


e|------0----0-0----------------------------0----0-0-----------------|
B|------5----5-5----------------------------5----5-5-----------------|
G|------5----5-5----------------------------5----5-5-----------------|
D|------5----5-5----------------------------5----5-5-----------------|
A|-------------------------------------------------------------------|
E|-------------------------------------------------------------------|
 You think maybe I need help, no I know I’m right.


e|-------------------------------------------------------------------|
B|----------------3--3-----3----3-3----------------------------------|
G|----------------5--5-----5----5-5----------------------------------|
D|----------------3--3-----3----3-3----------------------------------|
A|----------------5--5-----5----5-5----------------------------------|
E|-------------------------------------------------------------------|
   All right.



                                                     (repeat ~ 16
                                                            times) 
e|-0------0-0---------------3-----3-3--------------0-----------------|
B|-1------1-1---------------3-----3-3--------------0-----------------|
G|-2------2-2---------------4-----4-4--------------6-----------------|
D|-3------3-3---------------5-----5-5--------------7-----------------|
A|-3------3-3---------------5-----5-5--------------------------------|
E|-------------------------------------------------------------------|
  I’m just better off not listening to friends advice..


e|-------------------------------------------------------------------|
B|-----------3--------3-3----------------3----3-3--------------------|
G|-----------5--------5-5----------------2----2-2--------------------|
D|-----------3--------3-3----------------3----3-3--------------------|
A|-----------5--------5-5----------------2----2-2--------------------|
E|-------------------------------------------------------------------|
   When they insist on knowing the bliss

e|-------------------------------------------------------------------|
B|-----------3--------3-3----------------3----3-3--------------------|
G|-----------5--------5-5----------------2----2-2--------------------|
D|-----------3--------3-3----------------3----3-3--------------------|
A|-----------5--------5-5----------------2----2-2--------------------|
E|-------------------------------------------------------------------|
        I   tell     them   this.


e|-------------------------------------------------------------------|
B|-----------3--------3-3----------------3----3-3--------------------|
G|-----------5--------5-5----------------2----2-2--------------------|
D|-----------3--------3-3----------------3----3-3--------------------|
A|-----------5--------5-5----------------2----2-2--------------------|
E|-------------------------------------------------------------------|
  If they want to know what the reason is


e|-------------------------------------------------------------------|
B|-----------3--------3-3----------------7--7----9-9-9-9-------------|
G|-----------5--------5-5----------------7--7----9-9-9-9-------------|
D|-----------3--------3-3----------------7--7----9-9-9-9-------------|
A|-----------5--------5-5--------------------------------------------|
E|-------------------------------------------------------------------|
   I only smile when I lie then I tell them why



  (then to chorus and additional verses)

            
            
Suggest correction
Creating personal tab
Creating personal tab
You can edit any tab online and save it as your Personal.

You can edit, replace or remove any tab part or add personal notes – all changes will be seen only by you.

Personal tabs can be accessed anytime from any device, even offline.
Learn more »
Give kudos to tab author, rate the tab!
1 2 3 4 5
comments
print report bad tab
guest
You may want to rate the tab now too:
select rating
Wanna post a correction for this tab? Suggest correction