Oops, an error
Loading. Please wait.

Method Of Modern Love Bass Tab

1,811 views 6 this week
no commentswrite comment
1 2 3 4 5
please rate
add to favorites
launch autoscroll
font size
0
reset
guitar tuner
Tab Pro tools
  • play this tab
  • loop segment
  • change instrument
  • show fretboard
  • metronome
Autoscroll
slow
fast
+/-
esc
set tempo
stop
Contributor
Method of Modern Love
Hall & Oates
Bass Tab


Intro

|-------------------------------------------------|
|-------------------------------------------------|
|-3---3-x1--3----35-5-5-x3--5------1---1-x---1----|
|-------------------------------34--------4-------|

|-------------------------------------------------------|
|-------------------------------------------------------|
|--1-1-1-1-----1---3---3-x1--3----35-5-5-x3--5------1---|
|-4--------4-------------------------------------34-----|

|--------------------------------|      *() Second time only
|--------------------------------|
|-1-x---1-----1-1-1-11----(8\)---|
|----4-------4-------------------| x 2 

Verse

|--------------------------------------------------------|
|------------------------------------------------------3-|
|-3----33-----5----55-----321----11------1x3---3-1-------|
|--------------------------------------44-----------4----|

|--------------------------------------------------------|
|--------------------------------------------------------|
|-3----33-----5----55-----321----11------1x3-5-3-3--1----|
|--------------------------------------44--------------4-|

|----------------------------------------------------------------|
|-----3-x1--3-------------------------3-x1--3--------------------|
|---------------321------1---3\-----------------321-----11----1--|
|-1--------------------44---------1-----------------------4------|

Chorus

|-------------------------------------------------|
|-------------------------------------------------|
|-3---3-x1--3----35-5-5-x3--5------1---1-x---1----|
|-------------------------------34--------4-------|

|-------------------------------------------------------|
|-------------------------------------------------------|
|--1-1-1-1-----1---3---3-x1--3----35-5-5-x3--5------1---|
|-4--------4-------------------------------------34-----|

|----------------------------|  
|----------------------------|
|-1-x---1-----1-1-1-11-------|
|----4-------4---------------| 

Verse

|--------------------------------------------------------|
|------------------------------------------------------3-|
|-3----33-----5----55-----321----11------1x3---3-1-------|
|--------------------------------------44-----------4----|

|--------------------------------------------------------|
|--------------------------------------------------------|
|-3----33-----5----55-----321----11------1x3-5-3-3--1----|
|--------------------------------------44--------------4-|

|----------------------------------------------------------------|
|-----3-x1--3-------------------------3-x1--3--------------------|
|---------------321------1---3\-----------------321-----11----1--|
|-1--------------------44---------1-----------------------4------|

Chorus

|-------------------------------------------------|
|-------------------------------------------------|
|-3---3-x1--3----35-5-5-x3--5------1---1-x---1----|
|-------------------------------34--------4-------|

|-------------------------------------------------------|
|-------------------------------------------------------|
|--1-1-1-1-----1---3---3-x1--3----35-5-5-x3--5------1---|
|-4--------4-------------------------------------34-----|

|-------------------------------|  
|-------------------------------|
|-1-x---1-----1-1-1-11--11------|
|----4-------4-------------4-3--| 

Instrumental

|---------------------------------------------------------------|
|-----3-x1--3------------------------3-x1--3--------------------|
|---------------321------1-13\-------------------------------3\-|
|-1--------------------44--------1-------------3466-6--346------|

|---------------------------------------------------------------|
|-----3-x1--3------------------------3-x1--3-----------5577810--|
|---------------321------1-13\----------------------------------|
|-1--------------------44--------1------------3466-6------------|

|-----------------------------------------------|     |---------|
|-----------------------------------------------|     |---------|
|-333333------555555------111111------111111----|     |-----1---|
|-----------------------------------------------| x 2 |-4-------|

Chorus

|-------------------------------------------------|
|-------------------------------------------------|
|-3---3-x1--3----35-5-5-x3--5------1---1-x---1----|
|-------------------------------34--------4-------|

|-------------------------------------------------------|
|-------------------------------------------------------|
|--1-1-1-1-----1---3---3-x1--3----35-5-5-x3--5------1---|
|-4--------4-------------------------------------34-----|

|-------------------------------|  
|-------------------------------|
|-1-x---1-----1-1-1-11--11------|
|----4-------4-------------4-3--| 

Ending

|------------------------------------------------------------|
|-----3-x1--3------------------------3-x1--3-----------------|
|---------------321------1--x3\------------------------------|
|-1--------------------44--------1-------------456-6--456-6--|

|-----------------------------------------------------------|
|-----3-x1--3----------------------3-x1--3---------5x7x810--|
|---------------0-1-----------------------------------------|
|-1-------------------3-33-----1-------------3333-----------|

|----------------------------------------------------------------|
|-----3-x1--3------------------------3-x1--3----------788--------|
|---------------321----001-x3\-----------------------------------|
|-1------------------------------1-------------456----------8\---|

|--------------------------------------------------------|
|-----3-x1--3----------------------3-x1--3---------------|
|---------------0-1--------------------------------------|
|-1-------------------3-33-----1-------------1345--1345--|

|--------------------------------------------------------------|
|-----3-x1--3---------------------3-x1--3-------------4h5------|
|---------------321---------------------------------------3\---|
|-1-------------------3456\---1-------------33----33-----------|

|--------------------------------------------12------------------|
|-----3-x1--3----------------------3-x1--3--------9h10-----------|
|---------------0-1------------------------------------9--8-6----|
|-1-------------------3-33-----1-----------------------------8\--|

|------------------------------------------------------------|
|-----3-x1--3----------------------3-x1--3-----------55------|
|---------------3-1----------3--------------------------3\---|
|-1-------------------4566-6---1-------------446--456--------|

|---------------------------------------------------------------|
|-----3-x1--3-----------------------3-x1--3---------------------|
|---------------0-1---------------------------------------------|
|-1-------------------3-33------1-------------3456--34566668888-|

|-------------------------------------------------------------|
|-----3-x1--3--------------------------3-x1--3----------8-----|
|---------------321------11--x3\------------------------------|
|-1--------------------44----------1-------------446------6\--| &fade
comments
We did not receive enough feedback on this tab! Please rate:
print report bad tab
1 2 3 4 5
I want to post or [tab]
guest
You may want to rate the tab now too:
select rating
Please do not post tabs as comments. Select "correction" instead!