Oops, an error
Loading. Please wait.

Possession Obsession Bass Tab

1,179 views 3 this week
no commentswrite comment
1 2 3 4 5
please rate
add to favorites
launch autoscroll
font size
0
reset
guitar tuner
Tab Pro tools
  • play this tab
  • loop segment
  • change instrument
  • show fretboard
  • metronome
×
Best way to learn
"Possession Obsession"
Autoscroll
slow
fast
+/-
esc
set tempo
stop
Contributor
Possession Obsession
Hall & Oates
Bass Tab
Bassist: T-Bone Wolk

116BPM, 4/4

Intro

|------------|------------|------------|------------|
|------------|------------|------------|------------|
|------------|------------|------------|------------|
|-3----3-3---|-3----3-3---|-1----1-1---|-1----1-1---|

|------------|-------------|------------|---------------|
|------------|----------3--|------------|---------------|
|-6----6-6---|-6----6-6----|-5----5-5---|-5----------5--|
|------------|-------------|------------|---0-1--1-5----|

|------------|--------------|------------|-------------|
|------------|--------------|------------|-------------|
|-3----3-3---|-3----3-3-----|------------|-------------|
|------------|----------3-2-|-1----1-1---|-1--1----1-2-|

Verse

|------------|-------------|------------|-------------|
|------------|-------------|------------|-------------|
|------------|----------5--|-6----6-6---|-6----6---6--|
|-3----3-3---|-3----3-3----|------------|--------6----|

|------------|------------|--------------|-------------|
|------------|------------|--------------|-------------|
|-5----5-5---|-5----5--5--|-6----6-6---3-|-------------|
|------------|------------|----------6---|-1--1--2--2--|

|------------|-------------|------------|-------------|
|------------|-------------|------------|-------------|
|------------|----------5--|-6----6-6---|-6----6---8--|
|-3----3-3---|-3----3-3----|------------|--------6----|

|------------|--------------|--------------|-------------|
|------------|--------------|--------------|-------------|
|-5----5-5---|-5--------5---|-6----6---3---|-------------|
|------------|---0-1------5-|--------6---6-|-1--1--1-1---|

Chorus

|------------|-------------|------------|-------------|
|------------|-------------|------------|-------------|
|-6----6-6---|-------------|------------|-------------|
|------------|-1----1-1-2--|-3----3-3---|-3----1--1/--|

|------------|------------|--------------|-------------|
|------------|------------|--------------|-------------|
|-6----6-6---|------------|------------3-|-5--5-----5--|
|------------|-1----1-1---|-3----3-5-6---|--------5----|

|------------|-------------|
|------------|-------------|
|-6----6-6---|-------------|
|------------|-1-1-----1-2-|

Verse

|------------|-------------|------------|-------------|
|------------|-------------|------------|----------3--|
|------------|----------5--|-6----6-6---|-6----6-6----|
|-3----3-3---|-3----3-3----|------------|-------------|

|------------|---------------|--------------|-------------|
|------------|---------------|--------------|-------------|
|-5----5-5---|-5--5---5---5--|-6----6---3---|-------------|
|------------|------5---5----|--------6---6-|-1--1--2--2--|

|------------|-------------|------------|-------------|
|------------|-------------|------------|-------------|
|------------|----------5--|-6----6-6---|-6----6---6--|
|-3----3-3---|-3----3-3----|------------|--------6----|

|------------|------------|--------------|--------------|
|------------|------------|--------------|--------------|
|-5----5-5---|-5----5-5---|-6----6---3---|--------------|
|------------|------------|--------6---6-|-1--1--1--1/--|

Chorus

|------------|-------------|------------|-------------|
|------------|-------------|------------|-------------|
|-6----6-6---|-------------|------------|-------------|
|------------|-1----1-1-2--|-3----3-3---|-3----1--1/--|

|------------|------------|--------------|-------------|
|------------|------------|--------------|-------------|
|-6----6-6---|------------|------------3-|-5----5---5--|
|------------|-1----1-1---|-3----3-5-6---|--------5----|

|------------|-------------|--------------|-------------|
|------------|-------------|--------------|-------------|
|-6----6-6---|-------------|------------3-|-5----5--8\--|
|------------|-1-1---1-1---|-3----3-5-6---|-------------|

|------------|--------------|------------|------------|
|------------|--------------|------------|------------|
|-3----3-3---|-5----5-------|------------|------------|
|------------|--------0-1-2-|-3----3-3---|-3----3-3---|

|------------|------------|
|------------|------------|
|------------|------------|
|-3----3-3---|-3----3-3---|

Bridge

|------------|-------------|------------|---------------|
|------------|-------------|------------|---------------|
|-3----3-3---|-3----3---3--|-5----5-5---|-5--------3-5--|
|------------|--------3----|------------|----0-1-5------|

|------------|--------------|--------------|----------|
|------------|--------------|--------------|----------|
|-3----3-3---|-3-----3-3-3--|-5----5---3-4-|-5---5----|
|------------|-----3--------|--------5-----|---5------|

Chorus

|------------|--------------|------------|------------|
|------------|--------------|------------|------------|
|-6----6-6---|--------------|------------|------------|
|------------|-1----1-1-2-2-|-3----3-3---|-3----1-1---|

|--------------|-----------|
|--------------|-----------|
|-6----6---3---|-----------|
|--------6---6-|-1-1-------|

Ending

|------------|-------------|--------------|--------------|
|------------|-------------|--------------|--------------|
|-3----3-3---|-5----5--6\--|-3----3-3-----|-------3-5----|
|------------|-------------|----------3-2-|-1--1------3--|

|------------|-------------|-------------|-------------|
|------------|-------------|-------------|-------------|
|-3----3-3---|-5----5--6\--|-3----3-3----|-3--3-----5--|
|------------|-------------|-----------3-|-------3-----|

|------------|-------------|--------------|--------------|
|------------|-------------|--------------|--------------|
|-3----3-3---|-5----5--6\--|-3----3-3-----|-------3-5----|
|------------|-------------|----------3-2-|-1--1------3--|

|------------|-------------|-------------|---------------|
|------------|-------------|-------------|--------5---5--|
|-3----3-3---|-5----5--6\--|-3----3---3--|-3---3----5----|
|------------|-------------|--------3----|---3-----------|

|------------|-------------|--------------|-------------|
|------------|-------------|--------------|------5---5--|
|-3----3-3---|-5----5--6\--|-3----3-3-----|--------5----|
|------------|-------------|----------3-2-|-1-----------|

|------------|-------------|------------|-------------|
|------------|-------------|------------|-------------|
|-3----3-3---|-5----5--6\--|-3----3-3---|-----1----5--|
|------------|-------------|------------|---3---3-----|

|------------|-------------|--------------|----------------|
|------------|-------------|--------------|----------------|
|-3----3-3---|-5----5--6\--|-3----3-3-----|------------5---|
|------------|-------------|----------3-2-|-1-1-1--3-3---3-|

|------------|-------------|------------|---------------|
|------------|-------------|------------|----------5----|
|-3----3-3---|-5----5--6\--|-3----3-3---|-3---3--5---5--|
|------------|-------------|------------|---3-----------|

|------------|-------------*|
|------------|-------------*|
|-3----3-3---|-5----5--6\--*|
|------------|-------------*| fade
comments
We did not receive enough feedback on this tab! Please rate:
print report bad tab
1 2 3 4 5
I want to post or [tab]
guest
You may want to rate the tab now too:
select rating
Please do not post tabs as comments. Select "correction" instead!