Oops, an error
Loading. Please wait.

Rich Girl tab

46 views 15 this week
no commentswrite comment
1 2 3 4 5
3 more votes to show rating
add to favorites
×
Save as Personal and add changes to this tab that will be seen only by you. Learn more ›
×
You can save this tab as Personal to edit and correct it or add notes. All changes will be seen only by you. Learn more »
launch autoscroll
font size
0
reset
how to read this tab
guitar tuner
edit
Autoscroll
slow
fast
+/-
esc
set tempo
stop
About this tab version
Both piano and rhythm section are transcribed to guitar for full playing experience on one instrument. Was this info helpful? Yes No
rich girl – hall and oats 
transcribed by daniel paul
standard tuning (use a capo on the 1st fret if you want to play along with the song)


intro
   E         G#m7    C#m        C#m7/B    A        E/G#      F#m7          A/B
e|---------------7------------------------------------------------0---------0-0-|
b|-----9---------7-------9----------7---------5----------5--------x---------2-2-|
G|-----9-9-------4-------9----------9---------6--------4----------2---------2-2-|
D|-------------------------11---------11--------7------4-4-2--2-----2-------2-2-|
A|-7-------------------------------------------------------2--x-----x-------2-2-|
E|-0---------4-------9----------7---------5---------4---------2-----2-----------|

   E        G#m7      C#m         C#m7/B        A          E/G#        F#m7 
e|-----------------7----------------------9-11------------------------------0----|
b|-----9-7---------7---------9----------------------------------------------x----|
G|-----9---------4-----------9-----------------------6------4-4---4---------2----|
D|------------------------11---11-----11-9-----------7------4-4---4-2---2-2----2-|
A|-7--------------------------------------------7------7----x-------2---x------x-|
E|-0--------4---------9------------7------------5-5-5--5----4---4-------2--2---2-|



interlude
     E                        F#m7 G#m7
e|-----------------------------------|
b|---5-5555-555-55-5-5-5555-555-55-5-|
G|---x-xxxx-xxx-xx-x-x-xxxx-xxx------|
D|---2-2222-222-22-2-2-2222-222------|
A|---x-xxxx-xxx-xx-x-x-xxxx-xxx------|
E|-2-0---------------0----------2--4-|



verse 1
  Amaj7           G#m7 F#m7                E/B               F#m7 G#m7 C#m F#m7 G#m7
e|-4---4--4---4--4-----0---0--0---0--0----------------2-4p2-----------------------|
b|-5---5--5---5--5--7--2---2--2---2--2-----5---5--5-5-----------2---4--5----2---4-|
G|-6---6--6---6--6--4--2---2--2---2--2-----4---4--4-4-----------2---4--6----2---4-|
D|-7---7--7---7--7--4--2---2--2---2--2-----6---6--6-6-----------x---x--6---(2)-(4)|
A|-x-------------------x-------------------x----------2----2h4--x---x--4----x---x-|
E|-5----5------5-------2----2------2--(0)--7--------------------2---4-------2---4-|

  Amaj7             F#m7                F#m7 C#m7 F#m7   C#m7    A/B A/C# A6 
e|-4---4-----4-------0---0--0---0--0-------------------------------------(2)------|
b|-5---5--5---7-5-7--2---2--2---2--2----------------------------------2--(2)------|
G|-6---6--6----------2---2--2---2--2-----2---x-4--2--2---x-4----------2---2-------|
D|-7---7--7----------2---2--2---2--2--4--2--xx-6--2--2--xx-6------2---x---2—-4-2--|
A|-x-----------------x-------------------x--x--4--x--x--x--4------2---4---------4-|
E|-5----5------------2----2------2-------2--------2--2---------4------------------|



chorus 1, part A, end 1
   E             E/G#          C#m           E/B          A              E/G#m          F#m7           
  PM.....   ...........   ...........   ....              ......     ..........     ..........     ...
e|---------------------------------------------------------------5-5------------4-4------------0-0-----------|
b|--------9---------------------------5-----------------9--------5-5------------5-5------------2-2-----------|
G|--------9--x-x--------4--x-x--------6--x-x-----9--9h11---------6-6-x-x--------4-4-x-x--------2-2-x-x-4---6-|
D|-9------9--x-x-4------4--x-x-6------6--x-x-9h11----------------7-7-x-x-6--6---6-6-x-x-2--2---2-2-x-x-x---x-|
A|-7--7---7--x-x-x------x--x-x-4--4---4--x-x-7~-----------7------7-7-x-x-x--x---x-x-x-x-x--x---x-x-x-x-2---4-|
E|-0--0---0------4--4---4--------------------7~-----------5--5---5-5-----4--4---4-4-----2--2---2-2-----------|

chorus 1, part B, end 2
   E             E/G#          C#m           E/B          A              E/G#m          F#m7           
  PM.....   ...........   .......        .........       ......     ..........     ..........    
e|------------------------------------------------------4--------5-5------------4-4-------------------0-|
b|--------9-----------------------5---5-5-----------5h7----------5-5------------5-5-----------x-x--2----|
G|--------9--x-x--------4--x-x----4h6-4-4-x-x-4------------------6-6-x-x--------4-4-x-x-------x-x-------|
D|-9------9--x-x-4------4--x-x-6--6---6-6-x-x-6------------------7-7-x-x-6--6---6-6-x-x-2--2--x-x-------|
A|-7--7---7--x-x-x------x--x-x-4--4---4-4-x-x-x-----------7------7-7-x-x-x--x---x-x-x-x-x--x------------|
E|-0--0---0------4--4---4---------------------7--7--------5--5---5-5-----4--4---4-4-----2--2-------2--0-|



verse 2 (bass lines added)
  Amaj7                  F#m7                     E/B                    F#m7 G#m7 C#m F#m7 G#m7
     PM..................   ..........     ......
e|-4----------------------0--------------------------0---0-0--2--4p2--2-------------------------|
b|-5----------------------2------------2----------5--5---5-5---------------2---4---5-----2---4--|
G|-6----------------------2------------2----------4--4---4-4---------------2---4---6-----2---4--|
D|-7------4-6-7-----7--6--4-------4----2------4---6--6-----------------------------6----(2)-(4)-|
A|-x---7----------7-------x----4----4--x----4---4-x--------------------------------4------------|
E|-5----------------------2--2---------2----------7----7------0--2----4----2---4---------2---4--|

  Amaj7                  F#m7                                          B
     PM..        ........    .........    ........                                  ...........
e|-4------2h4--0----------0-----------------------------2---------2----------------------------|
b|-5----------------------2------------2----------------x---------x----------------------------|
G|-6----------------------2------------2-----------2--x-x--2-2--x-x----4~-----2-3-4~-----------|
D|-7----------------7--6--4-------4----2------4----2-xx-4--2-2-xx-4----x---2-------------------|
A|-x---7----------7-------x----4----4--x----4---4--x-x--4--x-x-x--4----2~-------------14-12----|
E|-5----------------------2--2---------2-----------2-------2-2-------4---------------------14\-|



chorus 2, part A, end 3 
   E             E/G#          C#m           E/B          A              E/G#m          F#m7           
  PM.....   ...........   ...........   ....              ......     ..........     ........     
e|---------------------------------------------------------------5-5------------4-4------------------------|
b|--------9---------------------------5-----------------9--------5-5------------5-5------------------------|
G|--------9--x-x--------4--x-x--------6--x-x-----9--9h11---------6-6-x-x--------4-4-x-x--------------4---6-|
D|-9------9--x-x-4------4--x-x-6------6--x-x-9h11----------------7-7-x-x-6--6---6-6-x-x-2--2-4---2---X---X-|
A|-7--7---7--x-x-x------x--x-x-4--4---4--x-x-7~-----------7------7-7-x-x-x--x---x-x-x-x-x--x-------4-2---4-|
E|-0--0---0------4--4---4--------------------7~-----------5--5---5-5-----4--4---4-4-----2--2---------------|

chorus 2, part B, end 4
   E             E/G#          C#m           E/B          A              E/G#m          F#m7           
  PM.....   ...........   .......        .........       ......     ..........     .........    
e|------------------------------------------------------4--------5-5------------4-4---------------------|
b|--------9-----------------------5---5-5-----------5h7----------5-5------------5-5---------------------|
G|--------9--x-x--------4--x-x----4h6-4-4-x-x-4------------------6-6-x-x--------4-4-x-x-----------6---4-|
D|-9------9--x-x-4------4--x-x-6--6---6-6-x-x-6------------------7-7-x-x-6--6---6-6-x-x-2--2-4----X---X-|
A|-7--7---7--x-x-x------x--x-x-4--4---4-4-x-x-x-----------7------7-7-x-x-x--x---x-x-x-x-x--x------4---2-|
E|-0--0---0------4--4---4---------------------7--7--------5--5---5-5-----4--4---4-4-----2--2--2---------|


half chorus 1, end 5
   A              E/G#m          F#m7           
  PM.....     ..........     ..........    
e|--------5-5------------4-4-----------------------------|
b|--------5-5------------5-5-----------------------------|
G|--------6-6-x-x--------4-4-x-x-------------------6---4-|
D|--------7-7-x-x-6--6---6-6-x-x-2--2---------2----x---x-|
A|-7------7-7-x-x-x--x---x-x-x-x-x--x-x-------x----4---2-|
E|-5--5---5-5-----4--4---4-4-----2--2-x-2-4-2-0----------|

half chorus 2, end 6
   A              E/G#m          F#m7           
  PM.....     ..........     ..........    
e|--------5-5------------4-4----------------------|
b|--------5-5------------5-5----------------------|
G|--------6-6-x-x--------4-4-x-x------------4---6-|
D|--------7-7-x-x-6--6---6-6-x-x-2--2-4-----x---x-|
A|-7------7-7-x-x-x--x---x-x-x-x-x--x-------2---4-|
E|-5--5---5-5-----4--4---4-4-----2--2--2----------|


outro chorus/fade out
   E             E/G#         C#m           E/B            A              E/G#m          F#m7           
  PM.....   ...........   ...........   ..........   ............     ..........     ........ 
e|----------------------------------------------------------------5-5------------4-4------------0-0-0---|
b|--------9---------------------------5------------5--------------5-5------------5-5----------x-2-2-2---|
G|--------9--x-x--------4--x-x--------4-x-x-4------4--x-x---------6-6-x-x--------4-4-x-x------x-2-2-2---|
D|-9------9--x-x-4------4--x-x-6------6-x-x-6------6--x-x---------7-7-x-x-6--6---6-6-x-x-2--2-x-------2-|
A|-7--7---7--x-x-x------x--x-x-4--4---4-x-x-x------x--x-x--7------7-7-x-x-x--x---x-x-x-x-x--x---------x-|
E|-0--0---0------4--4---4-------------------7--7---7-------5--5---5-5-----4--4---4-4-----2--2---------0-|


key:
PM = palm mute (anywhere below .......)
b = full step bend
b¼ = quarter step bend
b½ = half step bend
pre = bend note before striking
½pre = bend one half step before striking
brp = bend, release bend, then pull off
r = reverse bend
p = pull off
h = hammer on
v = vibrato
/ = slide up
\ = slidedown



Suggest correction
Creating personal tab
Creating personal tab
You can edit any tab online and save it as your Personal.

You can edit, replace or remove any tab part or add personal notes – all changes will be seen only by you.

Personal tabs can be accessed anytime from any device, even offline.
Learn more »
Give kudos to tab author, rate the tab!
1 2 3 4 5
comments
print report bad tab
guest
You may want to rate the tab now too:
select rating
Wanna post a correction for this tab? Suggest correction