Oops, an error
Loading. Please wait.

Sarah Smiles tab

23,060 views 18 this week
7 commentsread comments
1 2 3 4 5
x 9
add to favorites
×
Save as Personal and add changes to this tab that will be seen only by you. Learn more ›
×
You can save this tab as Personal to edit and correct it or add notes. All changes will be seen only by you. Learn more »
launch autoscroll
font size
0
reset
how to read this tab
guitar tuner
edit
Autoscroll
slow
fast
+/-
esc
set tempo
stop
Difficulty
intermediate
  THIS SONG WAS TABED ON BY ME AND IS DONE FOR A SPEICAL SOMEONE.. MY SARAH.. I WORK 
ON THIS I HOPE YOU ENJOY IT ITS A LITTLE HARD BUT U'LL GET THE HANG OF IT ITS A GREAT SONG :}


e|--------------------------------------------------13--------------|
B|----11hb13R--10--8-------------6---6---6hb8R----------------------|
D|---------------------------------7-------------7------------------|
g|------------------------------------------------------------------|
a|------------------------------------------------------------------|
E|------------------------------------------------------------------|


e|------------------------------------------------------------------|
B|-13-13-13---11hb13--10--8---6-6866--------6-6-9-6-------3---6/13--|
D|-----------------------------7------------------------------------|
g|------------------------------------------------------------------|
a|------------------------------------------------------------------|
E|------------------------------------------------------------------|

e|------------------------------------------------------------------|
B|------------------------------------------------------------------|
D|----6--8--6---13--------------------------------------------------|
g|------------------------------------------------------------------|
a|------------------------------------------------------------------|
E|------------------------------------------------------------------|

THATS THE INTRO I WORKED ON IT FOR AN HOURS SO PLAY WITH THE SONG WHEN U GET THE HANG OF 
NOW HERE IS TE CHORDING FOR THE SONG

Dm7       Am
Baby hair with a woman's eyes
Bbmaj7                  A7
I can feel you watching in the night
Dm7               Am                        Bbmaj7    Gm   A7
All alone with me and we're waiting for the sunlight
Bb          C         Dbdim  Dm7
When I feel cold, ya warm   me
            Bb             C                D#  Dm7
And when I feel I can't go on, you come and hold me
     Gm7
It's you...and me forever
      Dm7    Am7     Gm7     C Db
Sarah (smile) smile
               Dm7    Am7     Gm7     C
Oh, won't you smile awhile for me, Sarah...
Dm7                      Am
If you feel like leaving you know you can go
Bbmaj7                       A7
But why don't you stay until tomorrow?
Dm7                   Am                                 Bbmaj7    Gm   A7
If you want to be free you know, all you've got to do is say so
Bb          C         Dbdim  Dm7
When you feel cold, I'll warm you
             Bb                C                 D#   Dm7
And when you feel you can't go on, I'll come and hold you
     Gm7
It's you...and me forever
       Dm7    Am7     Gm7     C Db
Sarah (smile) smile
              Dm7    Am7     Gm7     C
Oh, won't you smile awhile for me, Sarah
        Dm7    Am7     Gm7     C Db
Sarah (smile) smile
              Dm7    Am7     Gm7     C
Oh, won't you smile awhile, Sarah...
  Dm7
 smile
             Dm7    Am7     Gm7     C
Oh, won't you smile awhile for me, Sarah

smile awhile won't you laugh and sing sarah..

            
            
Suggest correction
Creating personal tab
Creating personal tab
You can edit any tab online and save it as your Personal.

You can edit, replace or remove any tab part or add personal notes – all changes will be seen only by you.

Personal tabs can be accessed anytime from any device, even offline.
Learn more »
comments
print report bad tab
7 comments total. Showing first comments.
0 reply
wez himself 40 Sep 05, 2007 04:49 PM

um i belive the first part is just a bend up on the bottom e 15 then a bend on the b 15 up and down with some vibrato just my 2 cents

+1 reply
dontpoll 141 Dec 11, 2007 01:20 PM

Pretty good, but please know the correct title of the song you're tabbing.

0 reply
card042 10 Jul 10, 2008 03:03 PM

e|--------------------------------------------------13~~------------|
B|----13hb15R--8hb10R~~----------6---6

guest
Wanna post a correction for this tab? Suggest correction