Oops, an error
Loading. Please wait.

Your Imagination Bass Tab

1,135 views 1 this week
no commentswrite comment
1 2 3 4 5
excellent!
x 2
add to favorites
launch autoscroll
font size
0
reset
guitar tuner
Tab Pro tools
  • play this tab
  • loop segment
  • change instrument
  • show fretboard
  • metronome
Autoscroll
slow
fast
+/-
esc
set tempo
stop
Contributor
Your Imagination
Hall & Oates
Bass Tab
Bassist: T-Bone Wolk

116BPM, 4/4

Intro

|--------|
|--------|
|---12\--|
|--------|

|--------------|--------------|--------------|--------------|
|--------------|--------------|--------------|--------------|
|-5-5----5-----|------3-3-4-4-|-5-5----5-----|------3-3-4-4-|
|------5----4--|-3------------|------5----4--|-3------------|

|--------------|--------------|--------------|--------------|
|--------------|--------------|--------------|--------------|
|-5-5----5-----|------3-3-4-4-|-5-5----5-----|--------------|
|------5----4--|-3------------|------5----4--|-3----3-3-4-4-|

|-------------|
|-------------|
|------12\----|
|-5-----------|

Verses
                                                               8x
||---------------|--------------|--------------|---------------||
||o--------------|--------------|--------------|--------------o||
||o-5-5----5-----|------3-3-4-4-|-5-5----5-----|------3-3-4-4-o||
||-------5----4--|-3------------|------5----4--|-3-------------||

Bridge

|------------------|---------------|-------------------|---------------|
|------------------|---------------|-------------------|---------------|
|-3-3-3-3-3-3-/8\--|-5-5--5-5----5-|-3-3-3-3-3-3-/12\--|-5-5--5-5----5-|
|------------------|-----------5---|-------------------|-----------5---|

|------------------|---------------|-------------------|-------------|
|------------------|---------------|-------------------|-------------|
|-3-3-3-3-3-3-/8\--|-5-5--5-5----5-|-3-3-3-3-3-3-/12\--|-5-5---4--4--|
|------------------|-----------5---|-------------------|-------------|

Solo

||---------------|--------------|--------------|---------------||
||o--------------|--------------|--------------|--------------o||
||o-5-5----5-----|------3-3-4-4-|-5-5----5-----|------3-3-4-4-o||
||-------5----4--|-3------------|------5----4--|-3-------------||

Verse
                                                               3x
||---------------|--------------|--------------|---------------||
||o--------------|--------------|--------------|--------------o||
||o-5-5----5-----|------3-3-4-4-|-5-5----5-----|------3-3-4-4-o||
||-------5----4--|-3------------|------5----4--|-3-------------||

|--------------|--------------|--------------|--------------|
|--------------|--------------|--------------|--------------|
|-5-5----5-----|------3-3-4-4-|-5-5----5-----|--------------|
|------5----4--|-3------------|------5----4--|-3----3-3-4-4-|

|----------|------------|
|----------|------------|
|----------|-----12\----|
|-5--------|------------|

Coda

|--------------|--------------|--------------|--------------|
|--------------|--------------|--------------|--------------|
|-5-5----5-----|------3-3-4-4-|-5-5----5-----|------3-3-4-4-|
|------5----4--|-3------------|------5----4--|-3------------|

|--------------|--------------|--------------|--------------|
|--------------|--------------|--------------|--------------|
|-5-5----5-----|------3-3-4-4-|-5-5----5-----|------3-3-0-0-|
|------5----4--|-3------------|------5----4--|-3------------|
                                                               4x
||---------------|--------------|--------------|---------------||
||o--------------|--------------|--------------|--------------o||
||o-5-5----5-----|------3-3-4-4-|-5-5----5-----|------3-3-4-4-o||
||-------5----4--|-3------------|------5----4--|-3-------------||
comments
We did not receive enough feedback on this tab! Please rate:
print report bad tab
1 2 3 4 5
I want to post or [tab]
guest
You may want to rate the tab now too:
select rating
Please do not post tabs as comments. Select "correction" instead!