Oops, an error
Loading. Please wait.

Halo Theme tab

version 1
version 1

Whole song

by Halo
412,510 views 1,200 this week
23 commentsread comments
1 2 3 4 5
x 191
add to favorites
×
Save as Personal and add changes to this tab that will be seen only by you. Learn more ›
×
You can save this tab as Personal to edit and correct it or add notes. All changes will be seen only by you. Learn more »
launch autoscroll
font size
0
reset
how to read this tab
guitar tuner
edit
Autoscroll
slow
fast
+/-
esc
set tempo
stop
Author
Unregistered
e------------------------------------------------------------------|
B----2--3--2--2-0--------------------------------------------------|
G--4--------2-------------0--2------0------------------------------|
D-------------------0---2------4--2---4--2-4----------9------------|
A-----------------2--------------------------5---7-----------------|
E------------------------------------------------------------------|

e---------------------------------------------------------------|
B---------------------------------------------------------------|
G-----------------------------------2---------------------------|
D------------------2------4---5--4-------5---4--------2---------|
A---------------------------------------------------------------|
E---------------------------------------------------------------| 

e-------------------------------------------------------------------|
B-------------------------------------------------------------------|
G-------------------------------------------------------------------|
D-------------------------------------------------------------------|
A------7-----9-----10-----12-----12-10-9----------------------------|(x3)
E-0-0-0-0-0-0-0-0-0--0-0-0--0-0-0-----------------------------------|

e----------------------------------------------------------|
B----------------------------------------------------------|
G----------------------------------------------------------|
D----------------------------------------------------------|
A--7-7-7--9-9-9--10-10-10--12-12-10-9----------------------|(x2)
E----------------------------------------------------------|

e------------------------------------------------------|
B------------------------------------------------------|
G------4------6------7------9------9-9--5--4-----------|
D------2------4------5------7------7-7--7--7-----------|(x3)
A------------------------------------------------------|
E-0-0-0--0-0-0--0-0-0--0-0-0--0-0-0--------------------|

e------------------------------------------------------------------|
B----2--3--2--2-0--------------------------------------------------|
G--4--------2-------------0--2------0------------------------------|
D-------------------0---2------4--2---4--2-4----------9------------|
A-----------------2--------------------------5---7-----------------|
E------------------------------------------------------------------|

            
            
Suggest correction
Creating personal tab
Creating personal tab
You can edit any tab online and save it as your Personal.

You can edit, replace or remove any tab part or add personal notes – all changes will be seen only by you.

Personal tabs can be accessed anytime from any device, even offline.
Learn more »
comments
print report bad tab
23 comments total. Showing first comments. show 1 bad comment
+9 reply
KotovSyndrome 10 Jul 14, 2009 07:12 AM

Love this game. Great Tab. Enough Said LOL

+10 reply
Dogietreats 10 Jul 25, 2009 07:51 PM

i play it whilst playing the game

guest
Wanna post a correction for this tab? Suggest correction