Oops, an error
Loading. Please wait.

Me Vs The World tab

version 2
version 2

Whole song

1,913 views 1 this week
no commentswrite comment
1 2 3 4 5
x 6
add to favorites
×
Save as Personal and add changes to this tab that will be seen only by you. Learn more ›
×
You can save this tab as Personal to edit and correct it or add notes. All changes will be seen only by you. Learn more »
launch autoscroll
font size
0
reset
how to read this tab
guitar tuner
edit
Autoscroll
slow
fast
+/-
esc
set tempo
stop
Author
-------------------------------------------------------------------------------
			     Me vs. The World - Halo Friendlies
-------------------------------------------------------------------------------
Tabbed by: boarDgirL
Email: windsurfa_girl@hotmail.com

Tuning: Standard

V.simple yet awesome song!

Intro is done on drums then straight into verse 1

Verse 1:
" hey boys, hey girls..."
e|--------------------------|
B|--------------------------|  
G|----5-----7-----9----10---|
D|----5-----7-----9----10---|       x2
A|----3-----5-----7----8----|
E|--------------------------|

"I fell out of..."
e|---------------------------------------|
B|---------------------------------------|  
G|----5-------7-------9-------10---------|
D|----5-(x4)--7-(x4)--9-(x4)--10-(x4)----|      x2
A|----3-------5-------7-------8----------|
E|---------------------------------------|

"I'm tryin to be nice..."
e|----------------------------------------------------------------|
B|----------------------------------------------------------------|
G|-----------5-----------------------------------5------4--5------|
D|---5-------5—(x8)--3---------2------3----------5-(x5)-4--5-(x8)-|
A|---5-(x8)--3-------3-(x16)---2-(x8)-3-(x8)-----3------2--3------|
E|---3---------------1---------0------1---------------------------|
       faster and palm muted                     open chords

e|-------------------------------------------------------------------|
B|-------------------------------------------------------------------| 
G|----------5--------------------------------------5-------3---------|
D|--5-------5--(x8)----3--------2--------3---------5-(x5)--3-(x5)----|
A|--5-(x8)--3----------3-(x16)--2-(x8)---3-(x8)----3-------1---------| 
E|--3------------------1--------0--------1---------------------------|
    Back to muted                                 open chords

Chorus
"Cos its me..."
e|-----------------------------------------------------------------------------------|
B|-----------------------------------------------------------------------------------| 
G|----5------------------------5-----------------------5-----------------------------|
D|----5-(x5)-5-----3-----5-----5-(x5)5-----3-----5-----5-(x5)5-----7------3----------|
A|----3------5-(x5)3-(x5)5-(x5)3-----5-(x5)3-(x5)5-(x5)3-----5-(x5)7-(x5)-3-(x5)-----|
E|-----------3-----1-----3-----------3-----1-----3-----------3-----5------1----------|

     Listen for the rhythm



e|-----------------------------------------------------------------------------------|
B|-----------------------------------------------------------------------------------|
G|----5------------------------------------------------------------------------------|
D|----5-(x5)--5----------3--------5--------------------------------------------------|
A|----3-------5-(x5)-----3-(x5)---5--------------------------------------------------|
E|------------3----------1--------3--------------------------------------------------|

                                                  Palm mute last chord in chorus

Solo
e|---3--1-1--0-0--------3-3--1-1--0-0-------3-3--1-1--0-0---------------------------|
B|---------------1-1------------------1-1-------------------1-1---3-3--1-1--3-3-1-1-|
G|----------------------------------------------------------------------------------|  x2
D|----------------------------------------------------------------------------------|
A|----------------------------------------------------------------------------------|
E|----------------------------------------------------------------------------------|

Verse 2:
"You should..."
e|---------------------------------------------|
B|---------------------------------------------|  
G|----5----------7-----------9---------10------|
D|----5--(x2)----7--(x2)-----9--(x2)---10-(x2)-|       x2
A|----3----------5-----------7----------8------|
E|---------------------------------------------|
Slightly offbeat

"I'm slammin..."
e|---------------------------------------|
B|---------------------------------------|  
G|----5-------7-------9-------10---------|
D|----5-(x4)--7-(x4)--9-(x4)--10-(x4)----|      x2
A|----3-------5-------7-------8----------|
E|---------------------------------------|
	
"I'm tryin to be nice..."
e|---------------------------------------------------------------------------------|
B|---------------------------------------------------------------------------------|
G|--------------5-----------------------------------------5-------4--5-------------|
D|---5----------5—(x8)------3---------2---------3---------5-(x5)--4--5-(x8)--------|
A|---5- (x8)----3-----------3-(x16)---2-(x8)----3-(x8)----3-------2--3-------------|
E|---3----------------------1---------0---------1----------------------------------|
       faster and palm muted                                          open chords

e|---------------------------------------------------------------------------------|
B|---------------------------------------------------------------------------------| 
G|--------------5---------------------------------------5--------3-----------------|
D|---5----------5—(x8)----3---------2---------3---------5-(x5)---3-(x5)------------|
A|---5- (x8)----3---------3-(x16)---2-(x8)----3-(x8)----3--------1-----------------| 
E|---3--------------------1---------0---------1------------------------------------|
      Back to muted                                                     open chords


Chorus again

	             "im gonna be..."
e|-------------------------------------------------------------------------------|
B|-------------------------------------------------------------------------------|
G|-5-5-5------5-5-5-----------5-5-5------7-7-7-------9-9-9--------10-10--10------|
D|-5-5-5-(x8)-5-5-5-(x16)-----5-5-5-(x4)-7-7-7-(x4)--9-9-9-(x4)---10-10--10-(x2)-|
A|-3-3-3------3-3-3-----------3-3-3------5-5-5-------7-7-7--------8---8---8------|
E|-------------------------------------------------------------------------------|


Final Chorus
"Cause its me..."

e|--------------------------------------------------------------------------------------|
B|--------------------------------------------------------------------------------------| 
G|--5---------------------------5-----------------------------5-------------------------|
D|--5-(x5)-5------3------5------5-(x5)-5------3-------5-------5-(x5)-5------7------3----|
A|--3------5-(x5)-3-(x5)-5-(x5)-3------5-(x5)-3-(x5)--5-(x5)--3------5-(x5)-7-(x5)-3-(x5)-|
E|---------3------1------3-------------3------1-------3--------------3------5------1----|

     Listen for the rhythm
e|--------------------------------------------------------------------------------------|
B|--------------------------------------------------------------------------------------| 
G|--5---------------------------5---------------------------5---------------------------|
D|--5-(x5)-5-----3------5-------5-(x5)-5------3------5------5-(x5)-5------7------3------|
A|--3------5-(x5)3-(x5)-5-(x5)--3------5-(x5)-3-(x5)-5-(x5)-3------5-(x5)-7-(x5)-3-(x5)-|
E|---------3-----1------3--------------3------1------3-------------3------5------1------|




e|---------------------------------------------------------------------------|
B|---------------------------------------------------------------------------|
G|----5------------------------------5---------------------------------------|
D|----5-(x5)--5---------3-------5----5---------------------------------------|
A|----3-------5-(x5)----3-(x5)--5----3---------------------------------------|
E|------------3---------1-------3--------------------------------------------|
			        Let last note ring
Suggest correction
Creating personal tab
Creating personal tab
You can edit any tab online and save it as your Personal.

You can edit, replace or remove any tab part or add personal notes – all changes will be seen only by you.

Personal tabs can be accessed anytime from any device, even offline.
Learn more »
comments
print report bad tab
guest
You may want to rate the tab now too:
select rating
Wanna post a correction for this tab? Suggest correction