Oops, an error
Loading. Please wait.

Sometimes bass

74 views 1 this week
no commentswrite comment
1 2 3 4 5
3 more votes to show rating
add to favorites
×
Save as Personal and add changes to this tab that will be seen only by you. Learn more ›
×
You can save this tab as Personal to edit and correct it or add notes. All changes will be seen only by you. Learn more »
launch autoscroll
font size
0
reset
guitar tuner
edit
Autoscroll
slow
fast
+/-
esc
set tempo
stop
Author
-------------------------------------------------------------------------------
                             Halocene - Sometimes
-------------------------------------------------------------------------------
Tabbed by: Ajfrancis14

Tuning:Standard
INTRO
G|--------7-----------------|----7-------------|----7-----------------|----7--------|
D|-----------------------10-|------------------|-------------------10-|-------------|
A|--15\-5----5-8-5--8h10----|--5----5-8-5h10---|--5----5-8-5--8h10----|--5----5-8-5-|
E|--------------------------|------------------|----------------------|-------------|

G|----------------|-----------------|------------------------|----------------------|
D|------5-7-------|-------5-7-------|------5-7-----5-7-------|------5-7-------------|
A|--5-8-----5-5-5-|---5-8-----5-5-5-|--5-8-----5-8-----5-5-5-|--5-8-----5-5-5-------|
E|----------------|-----------------|------------------------|----------------------|

G|-----------------------|----------------|----------------------|------------------|
D|------5-7----5-7-------|------5-7-------|-----5-7----5-7-------|------5-7---------|
A|--5-8----5-8-----5-5-5-|--5-8-----5-5-5-|--5-8----5-8----5-5-5-|--5-8-----5-5-5---|
E|-----------------------|----------------|----------------------|------------------|
VERSE
G|-------------|-----------|--------------|-----------|---------------|-------------|
D|--5-\-3------|-----------|--------------|-----------|---------------|-------------|
A|--------5-5--|---5-5-5---|--8-\-5--5-5--|---5-5-5---|---8-\-5--5-5--|--5-5-5------|
E|-------------|-----------|--------------|-----------|---------------|-------------|
                          PRE CHOURS
G|-------------|---------|---------|---7-----------------|---7-----------|----------|
D|-------------|---------|-8~--10~-|------------------10-|---------------|----------|
A|--8-\-5--5-5-|--5-5-5--|---------|-5----5-8-5--8h10----|-5----5-8-5-10-|-8~--10~--|
E|-------------|---------|---------|---------------------|---------------|----------|

G|-----------------|-----------------|---------|-----------------|------------------|
D|------5-7--------|------5-7--------|-8~--10~-|------5-7--------|------5-7---------|
A|--5-8-----5-5-5--|--5-8-----5-5-5--|---------|--5-8-----5-5-5--|--5-8-----5-5-5---|
E|-----------------|-----------------|---------|-----------------|------------------|
                                               CHORUS
G|--------------------------------------------|------7------------|--------7--------|
D|--------------------------------------------|-------------------|-----------------|
A|--8-8-8-8-8-8-8-8--10-10-10-10-10-10-10-10--|--5-5---5-8-5-8h10-|--5-5-5---5-8-10-|
E|--------------------------------------------|-------------------|-----------------|

G|------7------------|---------------------|------7------------|--------7-----------|
D|-------------------|---------------------|-------------------|--------------------|
A|--5-5---5-8-5-8h10-|--8-8-8-8-10-10-8h10-|--5-5---5-8-5-8h10-|--5-5-5---5-8-10----|
E|-------------------|---------------------|-------------------|--------------------|
                                            BRIDGE
G|------7-------------|----------------------|--------------------------------------|
D|--------------------|----------------------|--0-0-3-3-5-5-10--10-10--10--(X4)-----|
A|--5-5---5-8-5-8h10--|--8-8-8-8-10-10-8h10--|--------------------------------------|
E|--------------------|----------------------|--------------------------------------|

I wasn't able to figure out the end of the bridge, but I'm 99% sure that the rest of 
this tab is correct. If you can figure out the bridge or see I've made a mistake, feel 
free to edit this tab rather than complaining that its wrong.
===============================================================================

            
            
Suggest correction
Creating personal tab
Creating personal tab
You can edit any tab online and save it as your Personal.

You can edit, replace or remove any tab part or add personal notes – all changes will be seen only by you.

Personal tabs can be accessed anytime from any device, even offline.
Learn more »
Give kudos to tab author, rate the tab!
1 2 3 4 5
comments
print report bad tab
guest
You may want to rate the tab now too:
select rating
Wanna post a correction for this tab? Suggest correction