Oops, an error
Loading. Please wait.

Pulp Fiction tab

version 1
version 1

Whole song

154 views 30 this week
1 commentread comment
1 2 3 4 5
3 more votes to show rating
add to favorites
×
Save as Personal and add changes to this tab that will be seen only by you. Learn more ›
×
You can save this tab as Personal to edit and correct it or add notes. All changes will be seen only by you. Learn more »
launch autoscroll
font size
0
reset
how to read this tab
guitar tuner
edit
Autoscroll
slow
fast
+/-
esc
set tempo
stop
[Intro Riff]
E|-----------------------------------------------------------------------|
B|-----------------------------------------------------------------------|
G|--------------------------------4-----5--4-----------5--5--4-----------|
D|-----------------------4--5--7-----5--------5--5--5-----------5--5--5--|
A|--7--7--7--7--7--7--7--------------------------------------------------|
E|-----------------------------------------------------------------------|

E|-----------------------------------------------------------------------|
B|-----------------------------------------------------------------------|
G|--------------------------------4-----5--4-----------5--5--4-----------|
D|-----------------------4--5--7-----5--------5--5--5-----------5--5--5--|
A|--5--5--5--5-----------------------------------------------------------|
E|--------------7--7--7--------------------------------------------------|

[Verse]
(0:20) 
(Break) ''Mä astuin baariin sisään,..''

(0:37) 
[Verse riff 1] 
''Chuck Berry alkoi tunnelmoimaan,..''
E|--------------------------------------------------------------------------|
B|--------------------------------------------------------------------------|
G|--------------------------------------------------------------------------|
D|--7--7--5--5--7--7--7--4--5--4--5--4--5--5--5--5--5--5--5--5--5--5--5--5--|
A|--------------------------------------------------------------------------|
E|--------------------------------------------------------------------------|

E|--------------------------------------------------------------------------|
B|--------------------------------------------------------------------------|
G|--------------------------------------------------------------------------|
D|--4--4--------5--5--5--4--5--4--5--4--2--2--2--2--2--2--2--2--2--2--2--2--|
A|--------5--5--------------------------------------------------------------|
E|--------------------------------------------------------------------------|

(0:53) 
[Verse riff 2] 
''Mut sit mä hiffasin sen,..''
E|---------------------------------------------------------------------------|
B|---------------------------------------------------------------------------|
G|---------------------------------------------------------------------------|
D|--7--7--7--7--7--9--9--9--9--9--9--10--10--10--10--10--10--10--10--10--10--|
A|---------------------------------------------------------------------------|
E|---------------------------------------------------------------------------|

E|---------------------------------------------------------------------------|
B|---------------------------------------------------------------------------|
G|---------------------------------------------------------------------------|
D|--7--7--7--7--7--9--9--9--9--9--9--10--10--10--10--12--12--12--12--12--12--|
A|---------------------------------------------------------------------------|
E|---------------------------------------------------------------------------|

(1:09) 
[Chorus] 
''Tanssi mun kanssa, tanssi tiukemmin,..''
E|-----------------------------------------------------------------------|
B|-----------------------------------------------------------------------|
G|-----------------------------------------------------------------------|
D|-----------------------------------------------------------------------|
A|--7--7--7--7--7--7--7--5--7--7--7--5--3--3--3--3--3--3--2--3--2--3--2--|
E|-----------------------------------------------------------------------|

E|-----------------------------------------------------------------------------|
B|-----------------------------------------------------------------------------|
G|-----------------------------------------------------------------------------|
D|-----------------------------------------------------------------------------|
A|--5--5--5--5--2--2--2--0--2--0--2--2--0--3--3--3--3--3--3--3--2--3--3--3--2--|
E|-----------------------------------------------------------------------------|

(1:41) 
[After chorus/Intro riff]
E|-----------------------------------------------------------------------|
B|-----------------------------------------------------------------------|
G|--------------------------------4-----5--4-----------5--5--4-----------|
D|-----------------------4--5--7-----5--------5--5--5-----------5--5--5--|
A|--7--7--7--7--7--7--7--------------------------------------------------|
E|-----------------------------------------------------------------------|

E|-----------------------------------------------------------------------|
B|-----------------------------------------------------------------------|
G|--------------------------------4-----5--4-----------5--5--4-----------|
D|-----------------------4--5--7-----5--------5--5--5-----------5--5--5--|
A|--5--5--5--5-----------------------------------------------------------|
E|--------------7--7--7--------------------------------------------------|

1:58 Verse riff 1 ''Siihen lakoi jengii kerääntyy, mä mietin pitäisköhän perääntyy,..''

2:14 Verse riff 2 ''Sit teit jotain radikaalii,..''

2:30 Chorus ''Tanssi mun kanssa,..''

(3:03) 
[Solothingy]
(? :D)
E|-------------------------------------------------------------------------------------------|
B|--7--9--7--9--7--9--9--9--9--11--9--11--9--11--11--11--11--12--11--12--11--12--12--12--12--|
G|-------------------------------------------------------------------------------------------|
D|-------------------------------------------------------------------------------------------|
A|-------------------------------------------------------------------------------------------|
E|-------------------------------------------------------------------------------------------|

E|-------------------------------------------------------------------------------------------|
B|--7--9--7--9--7--9--9--9--9--11--9--11--9--11--11--11--11--12--11--12--11--12--12--12--12--|
G|-------------------------------------------------------------------------------------------|
D|-------------------------------------------------------------------------------------------|
A|-------------------------------------------------------------------------------------------|
E|-------------------------------------------------------------------------------------------|

E|------------------------------------------|
B|--12--14--12--14--12--14--12--14--12--14--|
G|------------------------------------------|
D|------------------------------------------|
A|------------------------------------------|
E|------------------------------------------|

(3:23) 
[Chorus] 
''Tanssi mun kanssa,..''

            
            
Suggest correction
Creating personal tab
Creating personal tab
You can edit any tab online and save it as your Personal.

You can edit, replace or remove any tab part or add personal notes – all changes will be seen only by you.

Personal tabs can be accessed anytime from any device, even offline.
Learn more »
Give kudos to tab author, rate the tab!
1 2 3 4 5
comments
print report bad tab
1 comment total.
0 reply
niklas.nykanen 41 Jul 23, 2017 06:52 AM

___________ !!! READ PLEASE !!! ___________

This is nowhere near perfect, not even meant to be, just wrote it down quite fast (and I'm lazy lol).
But the meaning of this tab is that you get kind-of how it's played (or how I play it).
Just hit the mutes and hammer-ons/pull-offs at the right time by using your ear and you'll be fine.

Hope this somehow helped:d

(((ps. The Intro riff might sound better if you play it on higher strings. )))

guest
You may want to rate the tab now too:
select rating
Wanna post a correction for this tab? Suggest correction