Oops, an error
Loading. Please wait.

Landmine tab

by Halos
530 views 1 this week
1 commentread comment
1 2 3 4 5
3 more votes to show rating
add to favorites
×
Save as Personal and add changes to this tab that will be seen only by you. Learn more ›
×
You can save this tab as Personal to edit and correct it or add notes. All changes will be seen only by you. Learn more »
launch autoscroll
font size
0
reset
how to read this tab
guitar tuner
edit
Autoscroll
slow
fast
+/-
esc
set tempo
stop
hey guys
tabbed out another halos song :D
comment and rate please

capo on the 6th fret
x2
E|------------------------|
B|------------------------|
G|------------------------|
D|------------------------|
A|22-2222-22-2222-00-202~-|
E|00-3030-00-3030-33-333~-|

listen to the song to figure out the strumming
basically just add the second and third fret
on the high e to the chords, with the same 
strumming pattern

E|--0-|
B|--0-|
G|--0-|
D|--0-|
A|--2-|
E|3-3-|

E|--0-|-2-|
B|--0-|-0-|
G|--0-|-0-|
D|--2-|-2-|
A|3-3-|-3-|
E|----|---|

E|--0-|
B|--0-|
G|--0-|
D|--0-|
A|--2-|
E|3-3-|

E|--0-|-2-3-2|
B|--0-|-0-0-0|
G|--0-|-0-0-0|
D|--2-|-2-2-2|
A|3-3-|-3-3-3|
E|----|------|

eventually you hit a bridge

E|7-7-7--7-7-5-55-5-55-3-3-3-33-32-2-22-22-|
B|0-0-0--0-0-0-00-0-00-0-0-0-00-00-0-00-00-|
G|-----------------------------------------|
D|-----------------------------------------|
A|-----------------------------------------|
E|-----------------------------------------|

then you go back to playing those chords again

with another mini bridge
4x
E|--77-55-|77-55-|
B|--88-88-|77-77-|
G|--------|------|
D|--------|------|
A|--------|------|
E|--------|------|

then continue the song with the same two chords

            
            
Suggest correction
Creating personal tab
Creating personal tab
You can edit any tab online and save it as your Personal.

You can edit, replace or remove any tab part or add personal notes – all changes will be seen only by you.

Personal tabs can be accessed anytime from any device, even offline.
Learn more »
Give kudos to tab author, rate the tab!
1 2 3 4 5
comments
print report bad tab
1 comment total.
0 reply
chadams123 208 Dec 18, 2010 11:17 AM

i messed up at the last part XD
those 13s 11s 9s and 8s are the actual fret numbers, but according to the placement of the capo they should be 7s 5s 3s and 2s

E|7-7-7-775-55-5-55-3-3-3-33-32-2-22-22
B|0-0-0-000-00-0-00-0-0-0-00-00-0-00-00
G|-------------------------------------
D|-------------------------------------
A|-------------------------------------
E|-------------------------------------

guest
You may want to rate the tab now too:
select rating
Wanna post a correction for this tab? Suggest correction