Oops, an error
Loading. Please wait.

Control chords

version 5
version 5

Whole song

by Halsey
475 views 3 this week
no commentswrite comment
1 2 3 4 5
3 more votes to show rating
add to favorites
×
Save as Personal and add changes to this tab that will be seen only by you. Learn more ›
×
You can save this tab as Personal to edit and correct it or add notes. All changes will be seen only by you. Learn more »
launch autoscroll
font size
0
reset
transpose
0
reset
simplify chords
display chords
guitar tuner
edit
Autoscroll
slow
fast
+/-
esc
set tempo
stop
Author
Strumming
There is no strumming pattern for this song yet. and get +5 IQ
Control by Halsey
 
[Intro]
 
e|--12---------13----19------------------------------------------------------|
B|-------12------------------------------------------------------------------|
G|---------------------------------------------------------------------------|
D|---------------------------------------------------------------------------|
A|---------------------------------------------------------------------------|
E|---------------------------------------------------------------------------|
 
 
[Verse]

Em
They send me away to find them a fortune
Em
A chest filled with diamonds and gold
C
The house was awake With shadows and monsters
C
The hallways they echoed and groaned
 
Em
I sat alone, in bed 'til the morning
Em
I'm crying, "They're coming for me"
C
And I tried to hold these secrets inside me
C
My mind's like a deadly disease
 

[Pre Chorus]
 
e|---------------|
B|---------------|
G|---------------|x8
D|-2-------------|
A|---2-----------|
E|---------------|
 I'm bigger than my body

e|---------------|
B|---------------|
G|---------------|x8
D|-2-------------|
A|---3-----------|
E|---------------|
 I'm colder than this home

e|---------------|
B|---------------|
G|---------------|x8
D|-2-------------|
A|---2-----------|
E|---------------|
 I'm meaner than my demons 

e|---------------|
B|---------------|
G|---------------|x8
D|-4-------------|
A|---2-----------|
E|---------------|
 I'm bigger than these bones


[Chorus]

Em
And all the kids cried out,
                     B7
"Please stop, you're scaring me"
Em                      B7
I can't help this awful energy
Em                           B7
Goddamn right, you should be scared of me
C         B7
Who is in control?
 

[Verse]

Em
I paced around for hours, on empty
Em
I jumped at the slightest of sounds
C
And I couldn't stand the person inside me
C
I turned all the mirrors around
 

[Pre Chorus]
 
e|---------------|
B|---------------|
G|---------------|x8
D|-2-------------|
A|---2-----------|
E|---------------|
 I'm bigger than my body

e|---------------|
B|---------------|
G|---------------|x8
D|-2-------------|
A|---3-----------|
E|---------------|
 I'm colder than this home

e|---------------|
B|---------------|
G|---------------|x8
D|-2-------------|
A|---2-----------|
E|---------------|
 I'm meaner than my demons 

e|---------------|
B|---------------|
G|---------------|x8
D|-4-------------|
A|---2-----------|
E|---------------|
 I'm bigger than these bones

 
[Chorus]

Em
And all the kids cried out,
                     B7
"Please stop, you're scaring me"
Em                      B7
I can't help this awful energy
Em                           B7
Goddamn right, you should be scared of me
C        B7
Who is in control?
 

[Bridge]
 
e|--12-------13---19---------------------------------------------------------|
B|------12-------------------------------------------------------------------|
G|---------------------------------------------------------------------------|
D|---------------------------------------------------------------------------|
A|---------------------------------------------------------------------------|
E|---------------------------------------------------------------------------|
 

[Chorus]

Em
And all the kids cried out,
                     B7
"Please stop, you're scaring me"
Em                      B7
I can't help this awful energy
Em                           B7
Goddamn right, you should be scared of me
C         B7
Who is in control?
 
Em
And all the kids cried out,
                     B7
"Please stop, you're scaring me"
Em                      B7
I can't help this awful energy
Em                           B7
Goddamn right, you should be scared of me
C         B7
Who is in control?
 

[Pre-Chorus]

                   Em
I'm bigger than my body
                     C
I'm colder than this home
                    Em
I'm meaner than my demons
                      B7
I'm bigger than these bones

            
            
Suggest correction
Creating personal tab
Creating personal tab
You can edit any tab online and save it as your Personal.

You can edit, replace or remove any tab part or add personal notes – all changes will be seen only by you.

Personal tabs can be accessed anytime from any device, even offline.
Learn more »
Give kudos to tab author, rate the tab!
1 2 3 4 5
comments
print report bad tab
guest
You may want to rate the tab now too:
select rating
Wanna post a correction for this tab? Suggest correction